Ads

Under Her Control (Final Fantasy VIII) Guitar Tab

Submitted: Sep 22, 2012 by Chriscendo

5
Average: 5 (5 votes)
Download | Listen
Game: Final Fantasy VIII
Composer(s): Nobuo Uematsu
Style: Arrangement, Fingerstyle, Natural harmonics
Series: Final Fantasy

AutoScroll: Slow | Medium | Fast
                              Under Her Control                                 


                                                     Arranged by Chris MacKinnon
Electric Guitar



      E  E  E  E  E  E  E  E     E  E  E  E  E  E  E  E   
E||---------------------------|--------------------------|
B||---------------------------|--------------------------|
G||*--------0--------0--------|--------0--------0--------|
D||*--------4--2-----4--2-----|--------4--2-----4--2--1--|
A||------------------------2--|--------------------------|
E||---0-----------------------|--0-----------------------|


  E  E  E  E  E  E  E  E     E  E  E  E  E  E  E  E    
--------------------------|---------------------------|
--------------------------|---------------------------|
--------0--------0--------|--------0--------0---------|
--2-----4--2-----4--2-----|--------4--2-----4--2------|
-----------------------2--|-----------------------2/--|
-----0--------------------|--0--0---------------------|


  E   E  E   E  E   E  E   E     E   E  E   E  E   E  E  E   
-----14------------12---------|-----10-------------9--------|
-----12-----14-----12-----12--|-----10-----10-----10-----8--|
-----12-----12------9-----11--|-----11------9------9-----7--|
-----14-----12-----11-----12--|-----12-----11-----11-----9--|
--------------------------10--|-------------9------------7--|
------------------------------|-----------------------------|


  ^                                                     
  Q     E  E  E  E   E  E     E  E  E  Q     E  E   E   
--7-----L------------------|--L------------------------|
--8-----L------------------|--L------------------------|
--7----11--9-----7---------|---------------------------|
--9-----------------11-----|--9--7--------------7--11--|
--7------------------------|-----------9----10---------|
--0------------------------|---------------------------|


  E   E  E   E  E   E  E   E     E   E  E   E  E   E  E  E   
-----14-----15-----17-----14--|-----10-------------9--------|
-----12-----14-----15-----12--|-----10-----10-----10-----8--|
-----12-----12-----14-----12--|-----11------9------9-----7--|
-----14-----12-----14-----12--|-----12-----11-----11-----9--|
------------------------------|-------------9------------7--|
------------------------------|-----------------------------|


  ^                                                                 
  Q    E   E  E  Q     E      E   S  S  S  S  S  S  E   E   E   E   
--7----L------------------|----------------------------------------|
--8----L------------------|------15-12-15----12--------12--12--13--|
--7--------------7----11--|------------15-14-12--------------------|
--9-------11--------------|--14-----------------14-12--14--14--14--|
--7-----------------------|----------------------------------------|
--0-----------------------|---0------------------------------------|


   ^                               ^           ^          
   Q      Q     E   E   E   E      Q     Q     Q    Q     
---------10--------------------|---8----------------7----|
--10-------------------10------|--10----12----10---------|
--11~-----------L--------------|---8-----L-----7---------|
--12------------L------11--12--|--10-----L-----9---------|
--12------------L--12----------|-------------------------|
-------------------------------|-------------------------|


  E  E   E    E  E   E  E  E     E  E  E  E  E  E  E  E   
--2--0--14s--12-----10-----9--|-----7-----5-----7--7--8--|
------------------------------|--------------------------|
--------11s---9------7-----6--|-----4-----2--------------|
--2---------------------------|-----------------5--5-----|
------------------------------|-----------------------7--|
-----0---L--------------------|--------------------------|


  ^     ^                      ^           ^          
  Q     Q.      E   E   E      Q     Q     Q    Q     
--5----10-------L----------|---8----------------7----|
--7----10-------L--10---L--|--10----12----10---------|
--7----11-------L----------|---8-----L-----7---------|
--7----12-------L--11--12--|--10-----L-----9---------|
--5------------12----------|-------------------------|
---------------------------|-------------------------|


  E  E  E  E  E  E  E  E     E  E  E  E  E   E  S  S  S  S  
--2--0--L-----------------|--------------------------------|
--------------------------|-----------------------------12-|
-----------6-----7--------|---------------------9-11-12----|
--2-----------------------|--9--L-----5--Ls--0-------------|
--------9--7-----9--7-----|--------9--7--Ls--0--L----------|
-----0--------------------|--0--0--------------------------|


         NH                                               
   E     E  E  E  E  E  E  E     E  E  E  E  E  E  E  E   
--14--<>12--L-----------------|--------------------------|
------------3--------0--------|--2-----2-----1--0--------|
------------------2--------0--|--2-----2-----------2-----|
---------------0--------0-----|--------------0--L-----4--|
------------------------------|-----4-----------------0--|
---------------------3--------|-----------0--------------|


  E  E  E  E  E  E  E  E     E  E  E  S S H           W                    
--------------------------|------------------------|---------------------||
-----0--3--------0--------|--2-----2------3--------|--L~-----------------||
-----0--------2--------0--|--2-----2------4--------|--L~----------------*||
-----4-----0--------0-----|------------------------|--------------------*||
--------------------------|-----4-----0-1-2--------|--L~-----------------||
--0--------------3--L-----|------------------------|---------------------||
Login or Register to remove this ad.

1 comment on Under Her Control

Best on electric

I think this arrangement sounds best played on electric guitar with a clean tone and a little chorus. A bit of tasteful whammy bar would be good too :)