Ads

Starting Up (Final Fantasy VIII) Guitar Tab

Submitted: Aug 06, 2016 by JordanVS

5
Average: 5 (2 votes)
Download | Listen
Game: Final Fantasy VIII
Composer(s): Nobuo Uematsu
Style: Arrangement, Fingerstyle, Natural harmonics
Series: Final Fantasy

AutoScroll: Slow | Medium | Fast
Starting Up                                     
Final Fantasy VIII
Nobuo Uematsu 
JordanVS

-Tempo : 130 ~ 4/4 
*Drop D Tuning(D-A-D-G-B-e)
*Capo on the 2nd fret
        NH                                                                                                    
        W                   H        S S S S S S S S    H        S S S S S S S S    H        S S S S S S S S  
E||----------------------|---------------------------|-----------------------0-2-|---------------------------|
B||----------------------|---------------------------|-----------------1-2-4-----|---------------------------|
G||--<>12----------------|---------------------------|--3--------0-2-3-----------|--2------------------------|
D||----------------------|--2------------------------|---------------------------|-----------------0-1-0-----|
A||----------------------|-----------------0-1-0-----|--1------------------------|--0--------0-2-3-------3-2-|
D||----------------------|--2--------2-4-5-------5-4-|---------------------------|---------------------------|


  H        S S S S S S S S    H        S S S S S S S S    H         S  S  S  S  S  S  S  S  
-----------------------5-7-|--0------------------------|--6-----------------------11-12-14-|
-----------------6-7-9-----|---------------------------|-----------------11-13-14----------|
-----------5-7-8-----------|-----------------2-3-2-----|-----------12-14-------------------|
--3------------------------|-----------2-4-5-------5-4-|-----------------------------------|
---------------------------|---------------------------|-----------------------------------|
--3------------------------|--2------------------------|--8--------------------------------|


   H        S S S S S S S S    H        S S S S S S S S    Q    E  E  Q    E  S    Q    E  E  Q    E  S  
----------------------------|---------------------------|-----------------------|-----------------------|
------------------3-4-3-----|-------------------------5-|-----------------------|-----------------------|
--14--------2-4-5-------5-4-|--3------------------2-3---|-----------------------|-----------------------|
----------------------------|-----------------1-2-------|-----------------------|-----------------------|
---0------------------------|--0----------0-1-----------|-----------------------|-----------------------|
----------------------------|-----------2---------------|--2----2--2--2----2--2-|--2----2--2--2----2--2-|


  Q    E  E  Q    E  S    E  E  E  E  E  E  E  S    E  E  E  E  E  E  E  E     E  E  E  E  E  E  E  E   
-----------------------|-------------------------|--------------------------|--------------------------|
-----------------------|-------------------------|--------------------------|--------------------------|
-----------------------|-------------------------|--0-----------0-----------|--------------0-----2-----|
-----------------------|-------------------------|-----2-----2-----2-----2--|--0--2-----2-----2-----2--|
-----------------------|-----2-----0-------------|--------------------------|--------------------------|
--2----2--2--2----2--2-|--2-----5-----4--5--0--4-|--2-----2--2--2-----2--2--|--2-----2--2--2-----2--2--|


  E  E  E  E  E  E  E  E     E  E  E  E  E  E  E  E     E  E  E  E  E  E  E  E     E  E  E  E  E  E  E  E   
--------------------------|--------------------------|--3--0-----0--3--0-----0--|-----0-----0--3--0--5--2--|
--------------------------|--------------------------|-----0-----0-----0-----0--|--3--------------0--3-----|
--0-----------------------|--------------0-----2-----|--3-----------3-----------|-----0-----0--3--------3--|
-----2-----2--0--2-----2--|--0--2-----2-----2--------|--------------------------|--4-----------------------|
--------------------------|--------------------------|--------------------------|--------------------------|
--2-----2--2--2-----2--2--|--2-----2--2--2-----0--1--|--2-----2--2--2-----2--2--|--2-----2--2--2-----2--2--|


  E  E  E  E  E  E  E  E     E  E  E  E  E  E  E  E     H        H           H        H         
--3--0-----0-----0-----0--|-----0-----0--3--0--5--2--|-----------0--------|--------------------|
-----0-----0--3-----------|--3--------------0--3-----|--0-----------------|--4--------0--------|
--3--------------0-----0--|-----0-----0--3--------3--|-----------3--------|--2--------L--------|
--------------4-----------|--4-----------------------|--------------------|--------------------|
--------------------------|--------------------------|--------------------|--0-----------------|
--2-----2--2--2-----2--2--|--2-----2--2--2-----0--1--|--5-----------------|--------------------|


  H        H           W                   E  E  E  E  E  E  E  E     Q    E  E  Q    E  E   
-----------1--------|--5----------------|--L-----------------------|------------------------|
--3-----------------|-------------------|--------------------------|------------------------|
--5--------3--------|--2----------------|--L-----------------------|------------------------|
--------------------|-------------------|-----2--0-----------------|------------------------|
--1-----------------|--2----------------|-----------2--0-----------|------------------------|
--------------------|-------------------|-----------------5--0--1--|--2----2--2--2----2--2--|


  E  E  E  E  Q    E  E     Q    E  E  Q    E  E     Q    E  E  Q    E  E     W                 
-------------------------|------------------------|------------------------|-------------------|
--------------0----------|------------------------|------------------------|-------------------|
-----3--3--3--0----------|------------------------|------------------------|--0----------------|
-----4--4--4--2----------|------------------------|------------------------|--2----------------|
-------------------------|------------------------|------------------------|-------------------|
--2-----2--2--2----2--2--|--2----2--2--2----2--2--|--2----2--2--2----2--2--|--2----------------|


  H        S S S S S S S S    W                   H        S S S S S S S S    W                 
---------------------------|-------------------|---------------------------|-------------------|
---------------------------|--0----------------|-----------------------2-4-|-------------------|
--2--------------2-3-2-----|--0----------------|--2--------------2-3-5-----|--0----------------|
--4--------2-4-5-------5-4-|-------------------|--4--------2-4-5-----------|--2----------------|
---------------------------|-------------------|--0------------------------|--1----------------|
--4------------------------|--5----------------|---------------------------|-------------------|


  H        S S S S S S S S    W                   H        S S S S S S S S    W                 
---------------------------|-------------------|---------------------------|-------------------|
---------------------------|--0----------------|--L----------------------1-|--2----------------|
--2------------0-2-3-2-0---|--0----------------|--L------------0-2-3-2-3---|--2----------------|
--4--------2-4-----------4-|-------------------|-----------2-4-------------|--3----------------|
--3------------------------|--4----------------|--L------------------------|--4----------------|
---------------------------|-------------------|---------------------------|-------------------|


  W                  
-------------------||
--L----------------||
--L----------------||
--L----------------||
--L----------------||
-------------------||




Duration Legend
---------------
W - whole
H - half
Q - quarter
E - 8th
S - 16th
T - 32nd
X - 64th
. - note dotted
|-n-|  - n-tuplets


Tablature Legend
----------------
L - tied note
NH - natural harmonic
AH - artificial harmonic
TH - tapped harmonic
SH - semi harmonic
PH - pitch harmonic
h - hammer on
p - pull off
^ - brush up
v - brush down
Login or Register to remove this ad.

2 comments on Starting Up

That was so cool!

5

That was so cool!

hahaha why

5

hahaha why