Ads

The Salt Flats (Final Fantasy VIII) Guitar Tab

Submitted: Jun 01, 2012 by Hakoria (Last updated: Jun 03, 2012)

5
Average: 5 (5 votes)
Download | Listen
Game: Final Fantasy VIII
Composer(s): Nobuo Uematsu
Style: Arrangement, Fingerstyle, Transcription
Series: Final Fantasy

AutoScroll: Slow | Medium | Fast
                                The Salt Flats                                  
                                Nobuo Uematsu


                                                              Tabbed by: Hakoria

The melody rings out more than the bass.
The first track: "Sheet music arrange" is based on the 
sheets you can find online of this piece. It is not an 
exact replica as bass chords in the chorus had to be 
re-arranged to be more playable on guitar (without 
changing tuning and so on).
The second track: "Ost arrange" is a replica by ear 
with the help of the sheets that comes closer to how 
the ost sounds (minus the echo of the bells/synth, 
an added bass for intro/etc).

This piece is from Final Fantasy VIII - Disc 3.
A guitar arrange can't really best the original imo.


Sheet Music arrange



     E  E  E  E  E  E     E  E  E  E  E  E     E  E  E  E  E  E   
E||--------------------|--------------------|--------------------|
B||--------------------|--------------------|--1--------1--------|
G||--3--------3--------|--0--------3--------|--------1-----1-----|
D||--------5-----5-----|--------5-----5-----|-----3-----------3--|
A||--3--6-----------6--|--3--6-----------6--|--4-----------------|
E||--------------------|--------------------|--------------------|


  E  E  E  E  E  E     E  E  E  E  E  E     E  E  E  E  E  E   
--------------------|--------------------|--------------------|
-----------1--------|--------------------|--------------------|
--1-----1-----1-----|--3--------3--------|--0--------3--------|
-----3-----------3--|--------5-----5-----|--------5-----5-----|
--4-----------------|--3--6-----------6--|--3--6-----------6--|
--------------------|--------------------|--------------------|


  E  E  E  E  E  E     E  E  E  E  E  E       Q    E  Q    E   
--------------------|--------------------||-------------------|
--------------------|--------------------||---3----1--3----4--|
--1--------1--------|-----------1--------||*--0---------------|
--------3-----3-----|--------3-----3-----||*--1----L----------|
--1--4-----------4--|--1--4-----------4--||---3----L----------|
--------------------|--------------------||-------------------|


  Q    E  E  E  E     E  E  E  E  E  E     E  E  E  E  E  E   
--1----3--L--------|--3-----3-----3-----|--3-----3-----3-----|
-------------3--4--|--4-----4-----4-----|--4-----4-----4-----|
-------------------|--5-----------------|--L-----------------|
--L----------------|--5-----------------|--L-----------------|
--L-------------1--|--3-----------------|--L-----------3-----|
-------------3-----|--------------------|-----------------6--|


  Q    E  Q    E     Q.     E  E  E     E  E  E  E  E  E     E  E  E  E  E  E   
------------------|------------------|--3-----3-----3-----|--3-----3-----3-----|
--3-------3----4--|---------------1--|--4-----4-----4-----|--4-----4-----4-----|
--5----5----------|--3------1--3-----|--3--------L-----L--|--------------------|
--6----L----------|--L------------0--|--5--------L-----L--|--------------------|
--6----L----------|--L---------3-----|--6--------L-----6--|--5--------1--------|
------------------|------------------|--------------------|--------------------|


  Q    E  Q    E     Q    E  E  E  E     E  E  E  E  E  E   
------------------|--1----3-----------|--------------------|
--3----1--3----4--|----------3-----4--|--6-----6-----6-----|
------------------|-------------------|--------------------|
------------------|-------------------|--3-----------------|
--3---------------|--L----------------|--5-----------------|
--1---------------|--L----------4--5--|--6-----------------|


  E  E  E  E  E  E     Q    E  E  E  E     Q.     E  E  E     Q    E  E  E  E   
--------------1-----|--1-------1-----3--|--4---------------|--4----2--4-----6--|
--6-----6-----------|--2----4-----------|--4---------------|--0----------------|
--------------------|-------------------|--4---------------|--1----------------|
--L-----------0-----|--3----------------|--6------------1--|--2----------------|
--L--------------3--|--1----------1--0--|------------2-----|-------------2-----|
--L-----------------|-------------------|------------------|----------------4--|


  H.              H.              E  E  E  E  E  E     E  Q    Q    E   
--7------------|--L------------|--------4--3--------|------------------|
--8------------|--L------------|-----4--------4-----|--6--4---------3--|
--8------------|--L------------|--5--------------5--|----------3-------|
--9------------|--L------------|--5-----------------|--L---------------|
---------------|--L------------|--3-----------------|--L---------------|
--7------------|---------------|--------------------|------------------|


  E  E  E  E  E  E     E  E  E  E  E  E     E  E  E  E  E  E   
--------------------|--------------------|--------------------|
--1-----L-----L-----|--------------------|--1--------1--------|
--3-----0--3--0-----|--0--------3--------|--------1-----1-----|
-----1-----------1--|--------5-----5-----|-----3-----------3--|
--3-----------------|--3--6-----------6--|--4-----------------|
--------------------|--------------------|--------------------|


  E  E  E  E  E  E     E  E  E  E  E  E     E  E  E  E  E  E   
--------------------|--------------------|--------------------|
-----------1--------|--------------------|--------------------|
--1-----1-----1-----|--3--------3--------|--0--------3--------|
-----3-----------3--|--------5-----5-----|--------5-----5-----|
--4-----------------|--3--6-----------6--|--3--6-----------6--|
--------------------|--------------------|--------------------|


  E  E  E  E  E  E     E  E  E  E  E  E     E  E  E  E  E  E   
--------------------|--------------------|--------4--3--------|
--------------------|--------------------|-----4--------4-----|
--1--------1--------|-----------1--------|--5--------------5--|
--------3-----3-----|--------3-----3-----|--5-----------------|
--1--4-----------4--|--1--4-----------4--|--3-----------------|
--------------------|--------------------|--------------------|


  E  Q    Q    E     E  E  E  E  E  E     E  E  E  E  E  E   
------------------|--------------------|--------------------|
--6--4---------3--|--1-----L-----L-----|--------------------|
----------3-------|--3-----0--3--0-----|--0--------3--------|
--L---------------|-----1-----------1--|--------5-----5-----|
--L---------------|--3-----------------|--3--6-----------6--|
------------------|--------------------|--------------------|


  E  E  E  E  E  E     E  E  E  E  E  E     E  E  E  E  E  E   
--------------------|--------------------|--------------------|
--1-----------------|--------------------|--1-----L-----L-----|
-----------1--------|--1--------1--------|--3-----0--3--0-----|
--------3-----3-----|--------3-----3-----|-----1-----------1--|
--1--4-----------4--|--1--4-----------4--|--3-----------------|
--------------------|--------------------|--------------------|


  E  E  E  E  E  E     E  E  E  E  E  E     E  E  E  E  E  E   
--------------------|--------------------|-----------1--------|
--------------------|--3-----------------|--L-----3-----3-----|
--0--------3--------|--------------------|--0--3-----------3--|
--------5-----5-----|-----------3--------|--------------------|
--3--6-----------6--|--------5-----5-----|--------------------|
--------------------|--3--6-----------6--|--------------------|


  ^               
  H.              
--1-------------||
--3-------------||
--3------------*||
--3------------*||
--1-------------||
----------------||





Ost arrange



     E  E  E  E  Q       Q.     E  E  E     E  E   E   E  Q     
E||--6----------------|--3------6--------|--8------------------|
B||-------------------|------------------|---------------------|
G||-----------3-------|------------------|---------------------|
D||--------5----------|------------------|------------10-------|
A||--3--6-------------|------------------|-----8--11-----------|
E||-------------------|------------6--8--|--9------------------|


  H        E  E     E  E  E  E  Q       Q.     E  E  E     E  E  E  E  Q     
--4--------------|--6----------------|--3------6--------|--4----------------|
-----------------|-------------------|------------------|-------------------|
-----------------|-----------3-------|------------------|-------------------|
-----------------|--------5----------|------------------|--------3--6-------|
-----------4-----|--3--6-------------|------------------|-----4-------------|
--------------6--|-------------------|------------8--7--|--6----------------|


  H        E  E       Q    E  Q    E     Q    E  E  E  E     E  E  E  E  E  E   
--L--------------||-------------------|--1----3--L--------|--3-----3-----3-----|
-----------------||---3----1--3----4--|-------------3--4--|--4-----4-----4-----|
-----------------||*--0---------------|-------------------|--5-----------------|
-----------1-----||*--1----L----------|--L----------------|--5-----------------|
--------------4--||---3----L----------|--L-------------1--|--3-----------------|
-----------------||-------------------|-------------3-----|--------------------|


  E  E  E  E  E  E     Q    E  Q    E     Q.     E  E  E     E  E  E  E  E  E   
--3-----3-----3-----|------------------|------------------|--3-----3-----3-----|
--4-----4-----4-----|--3-------3----4--|---------------1--|--4-----4-----4-----|
--L-----------------|--5----5----------|--3------1--3-----|--3--------L-----L--|
--L-----------------|--6----L----------|--L------------0--|--5--------L-----L--|
--L-----------3-----|--6----L----------|--L---------3-----|--6--------L-----6--|
-----------------6--|------------------|------------------|--------------------|


  E  E  E  E  E  E     Q    E  Q    E     Q    E  E  E  E   
--3-----3-----3-----|------------------|--1----3-----------|
--4-----4-----4-----|--3----1--3----4--|----------3-----4--|
--------------------|------------------|-------------------|
--------------------|------------------|-------------------|
--5--------1--------|--3---------------|--L----------------|
--------------------|--1---------------|--L----------4--5--|


  E  E  E  E  E  E     E  E  E  E  E  E     Q    E  E  E  E   
--------------------|--------------1-----|--1-------1-----3--|
--6-----6-----6-----|--6-----6-----------|--2----4-----------|
--------------------|--------------------|-------------------|
--3-----------------|--L-----------0-----|--3----------------|
--5-----------------|--L--------------3--|--1----------1--0--|
--6-----------------|--L-----------------|-------------------|


  Q.     E  E  E     Q    E  E  E  E     E  E  E  E  E  E   
--4---------------|--4----2--4-----6--|--7-----7-----7-----|
--4---------------|--0----------------|--8-----8-----8-----|
--4---------------|--1----------------|--8-----L-----------|
--6------------1--|--2----------------|--9-----L-----------|
------------2-----|-------------2-----|--------------------|
------------------|----------------4--|--7-----L-----------|


  E  E  E  E  E  E     E  E  E  E  E  E     E  Q    E  E  E   
--7-----7-----7-----|--------4--3--------|-------------------|
--8-----8-----8-----|-----4--------4-----|--6--4----------3--|
--L-----------------|--5--------------5--|----------3--------|
--L-----------------|--5-----------------|--L----------------|
--L-----------------|--3-----------------|--L-------------1--|
--------------------|--------------------|-------------3-----|


  E  E  E  E  Q       Q.     E  E  E     E  E   E   E  Q       H        E  E   
--6-----L----------|--3------6--------|--8------------------|--4--------------|
-------------------|------------------|---------------------|-----------------|
--5--------3-------|------------------|---------------------|-----------------|
--------5----------|------------------|------------10-------|-----------------|
--3--6-------------|------------------|-----8--11-----------|-----------4-----|
-------------------|------------6--8--|--9------------------|--------------6--|


  E  E  E  E  Q       Q.     E  E  E     E  E  E  E  Q       H        E  E   
--6----------------|--3------6--------|--4----------------|--L--------------|
-------------------|------------------|-------------------|-----------------|
-----------3-------|------------------|-------------------|-----------------|
--------5----------|------------------|-----------6-------|-----------1-----|
--3--6-------------|------------------|-----4--8----------|--------------4--|
-------------------|------------8--7--|--6----------------|-----------------|


  E  E  E  E  E  E     E  Q    E  E  E     E  E  E  E  E  E   
--------4--3--------|-------------------|--------------------|
-----4--------4-----|--6--4----------3--|--1-----------------|
--5--------------5--|----------3--------|--0--L-----------L--|
--5-----------------|--L----------------|--------5--8--------|
--3-----------------|--L-------------1--|--3--6--------------|
--------------------|-------------3-----|--------------------|


  Q.     E  E  E     E  E  E  E  Q       H        E  E     E  E  E  Q.      
------------------|-------------------|-----------------|------------------|
------------------|-------------------|-----------------|------------------|
--0------3--------|--5----------------|--1--------------|--3--------3------|
------------------|--------3--6-------|-----------3-----|--------5---------|
------------3--2--|-----4-------------|--------------4--|--3--6------------|
------------------|--6----------------|-----------------|------------------|


  Q.     E  E  E     E  E  E  E  Q       H.              H.              
------------------|-------------------|---------------|----------------||
------------------|--3----------------|--L------------|--L-------------||
--0------3--------|-------------------|---------------|---------------*||
------------------|-----------3-------|---------------|---------------*||
------------------|--------5----------|---------------|----------------||
------------6--4--|--3--6-------------|---------------|----------------||



Duration Legend
---------------
W - whole
H - half
Q - quarter
E - 8th
. - note dotted


Tablature Legend
----------------
L - tied note
^ - brush up
Login or Register to remove this ad.

1 comment on The Salt Flats

It hurts, but it's worth the

5

It hurts, but it's worth the pain!