A Sacrifice (Final Fantasy VIII) Guitar Tab

Submitted: Aug 24, 2016 by JordanVS

5
Average: 5 (3 votes)
Download | Listen
Game: Final Fantasy VIII
Composer(s): Nobuo Uematsu
Style: Arrangement, Fingerstyle
Series: Final Fantasy

AutoScroll: Slow | Medium | Fast
A Sacrifice                                                   
Final Fantasy VIII
Nobuo Uematsu
JordanVS

*Dropped D Tuning(D-A-D-G-B-e)
-Tempo : 70 ~ 4/4 


      E   E   Q    H           H         H           E  E  Q    H           H        H         
E||----------10----8--------|---------------------|--------3----2--------|--------------------|
B||---8------------6--------|--8---------9--------|--3--1----------------|-----------0--------|
G||---8--11--------7--------|--8--------10--------|--0----------1--------|--2-----------------|
D||--10---------------------|---------------------|--1-------------------|--1--------0--------|
A||-------------------------|---------------------|----------------------|--------------------|
D||-------------------------|---------------------|----------------------|--------------------|


  Q    Q    H           W                   Q      Q     H           W                   Q    Q    H         
-------6----5--------|--L----------------|---------8-----6--------|-------------------|-------6----5--------|
-------7----6--------|--L----------------|--------10-----8--------|--L----------------|-------7----6--------|
-------6----7--------|--L----------------|-------(10)----8--------|--L----------------|-------6----7--------|
--0------------------|--L----------------|------------------------|--L----------------|--0------------------|
---------------------|-------------------|--6---------------------|--L----------------|---------------------|
---------------------|-------------------|------------------------|-------------------|---------------------|


  W                   Q    Q     H           W                   E  E  Q    E  E  Q     
--L----------------|-------5-----3--------|--L----------------|--------0----------0----|
--L----------------|-------4-----L--------|--L----------------|--------3----------3----|
--L----------------|-------------5--------|--L----------------|--2--1--2----2--1--3----|
--L----------------|----------------------|-------------------|------------------------|
-------------------|--3----L-----L--------|--L----------------|------------------------|
-------------------|----------------------|-------------------|--0---------------------|


  E  E  Q    Q    Q       Q    E  E  H           Q    E  E  H           E  E  Q    E  E  Q     
--------1--------------|-------5--r--6--------|-------7--r--6--------|--------0----------0----|
--------3----3----L----|-------3-----3--------|-------3-----3--------|--------3----------3----|
--2--1--4----3----L----|----------------------|----------------------|--2--1--2----2--1--3----|
------------------3----|-------3-----3--------|-------3-----3--------|------------------------|
------------------5----|----------------------|----------------------|------------------------|
--0--------------------|--0-------------------|--0-------------------|--0---------------------|


  E  E  Q    Q    Q       Q    E  E  H           Q    E  E  H           E  E  E  E  E  E  E  E   
--------1--------------|-------5--r--6--------|-------7--r--6--------|-----------5--6--8--5--6--|
--------3----3----L----|-------5-----3--------|-------3-----3--------|--------8-----------------|
--2--1--4----3----L----|-------7--------------|----------------------|--------------------------|
------------------3----|-------------3--------|-------3-----3--------|--------------------------|
------------------5----|-------8--------------|----------------------|-----5--L--------6--L-----|
--0--------------------|--0-------------------|--0-------------------|--5-----------5-----------|


  E  E  E  E  E  E  E  E     E  E  Q    E  E  E  E     E  E  Q    E  E  Q       E  E  E  E  E  E  E  E   
-----------5--6--5--------|-------------------------|------------------------|-----------------1--3--4--|
--------8-----------8-----|--8----------------------|------------------------|--------1--3--4-----------|
-----------------------8--|--------7----5-----7--8--|--7---------------------|-----0--L--------1--L-----|
--------------------------|-------------------------|------------------------|--------------------------|
-----7--L--------6--L-----|-----5--L-------6--L-----|-----7--L-------6--L----|--3-----------3-----------|
--5-----------5-----------|--5----------5-----------|--5----------5----------|--------------------------|

										*Da Capo
  E  E  Q    E  E  Q        E   E   E   E   E   E   E   E      E   E  Q     E   E  Q      
--3---------------------|--------------10--11--10----------|----------------------------||
------------------------|----------13--------------13------|--13------------------------||
-----2--L-------1--L----|------------------------------13--|----------------------------||
------------------------|----------------------------------|----------------------------||
--3----------3----------|------10---L----------11---L------|------12--L--------11--L----||
------------------------|--10--------------10--------------|--10-----------10-----------||




Duration Legend
---------------
W - whole
H - half
Q - quarter
E - 8th
S - 16th
T - 32nd
X - 64th
. - note dotted
|-n-|  - n-tuplets


Tablature Legend
----------------
L - tied note
x - dead note
g - grace note
(n) - optional note
r - rest
h - hammer on
p - pull off
^ - brush up
v - brush down
Login or Register to remove this ad.

1 comment on A Sacrifice

Wonderful!

Wonderful!