Ads

Roses and Wine (Final Fantasy VIII) Guitar Tab

Submitted: Jan 19, 2015 by Archloop (Last updated: Jan 19, 2015)

5
Average: 5 (4 votes)
Download | Listen
Game: Final Fantasy VIII
Composer(s): Nobuo Uematsu
Style: Arrangement, Fingerstyle
Series: Final Fantasy

AutoScroll: Slow | Medium | Fast
Roses and Wine
Final Fantasy VIII
Nobuo Uematsu
Archloop
12-01-2015

      Q    Q    Q    Q    Q    Q       Q    Q    Q    Q    H         
E||---------------------------------|-------------------------------|
B||---------------------------------|-------------------------------|
G||*-------2----0---------2---------|----------------------2--------|
D||*-----------------4---------2----|-------4----2----4-------------|
A||----------------------------4----|-------------------------------|
D||---0--------------L--------------|--0----------------------------|


  Q    Q    Q    Q    Q    Q       Q    Q    Q    Q    H         
--------------------------------|-------------------------------|
--------------------------------|-------------------------------|
-------2----0---------2---------|----------------------2--------|
-----------------4---------2----|-------4----2----4-------------|
---------------------------4----|-------------------------------|
--0--------------L--------------|--0----------------------------|


  Q    Q    Q    Q    Q    Q       Q    Q    Q    Q    H         
-----------------0--------------|--2-------------------L--------|
--3-----------------------------|-------------------------------|
-------2----0---------2---------|----------------------2--------|
--0--------------4---------2----|--0----4----2----4-------------|
---------------------------4----|-------------------------------|
--------------------------------|--0----------------------------|


  Q    Q    Q    Q    Q    Q       Q    Q    Q    Q    H         
--0--------------2--------------|--3-------------------L--------|
--------------------------------|----------------------2--------|
-------0--------------0---------|-------2---------2-------------|
--2---------4----2---------2----|------------5------------------|
---------------------------5----|--4----------------------------|
--------------------------------|-------------------------------|


  Q    Q    Q    Q    Q    Q       Q    Q    Q    Q    H         
--2--------------3--------------|--5-------------------L--------|
--------------------------------|----------------------2--------|
-------2----0---------2---------|-------2---------2-------------|
--0--------------4---------2----|--4---------6------------------|
--------------------------------|-------------------------------|
--------------------------------|-------------------------------|


   Q    Q    Q    Q    Q    Q       Q    Q    Q    Q    H         
---7-----------------------------|--0-------------------L--------|
--------0---------8----0---------|----------------------2--------|
------------------0---------0----|-------2---------2-------------|
-------------7--------------2----|------------5------------------|
--10-----------------------------|--4----------------------------|
---------------------------------|-------------------------------|


  Q    Q    Q    Q    Q    Q       Q    Q    Q    Q    H         
-----------------7--------------|--5-------------------L--------|
--7-----------------------------|----------------------2--------|
--------------------------------|-------2---------2-------------|
-------9----7---------9----0----|--4---------5------------------|
-----------------9---------9----|-------------------------------|
--9-----------------------------|-------------------------------|


  Q    Q    Q    Q    Q    Q       Q    Q    Q    Q    H         
-----------------3--------------|--0-------------------L--------|
--3-----------------------------|----------------------2--------|
-------4----2---------4----0----|-------2---------2-------------|
--5--------------5---------2----|------------5------------------|
--------------------------------|--4----------------------------|
--------------------------------|-------------------------------|


  Q    Q    Q    Q    Q    Q       Q    Q    Q    Q    H         
-----------------0--------------|--2-------------------L--------|
--3-----------------------------|-------------------------------|
-------2----0---------2---------|-------0---------0----4--------|
-----------------4---------2----|------------4------------------|
--5------------------------4----|-------------------------------|
--------------------------------|--4----------------------------|


  Q    Q    Q    Q    Q    Q       Q    Q    Q    Q    H           
--2--------------0--------------|--------------------------------||
--------------------------------|--3-----------------------------||
-------2----0---------2---------|----------------------2--------*||
--2--------------4---------2----|--0----4----2----4-------------*||
---------------------------4----|--------------------------------||
--------------------------------|--0-----------------------------||


  Q    Q    Q    Q    Q    Q       Q    Q    Q    Q    H         
--------------------------------|-------------------------------|
--------------------------------|-------------------------------|
-------2----0---------2---------|----------------------2--------|
-----------------4---------2----|-------4----2----4-------------|
---------------------------4----|-------------------------------|
--0--------------L--------------|--0----------------------------|


  Q    Q    Q    Q    Q    Q       Q    Q    Q    Q    H         
--------------------------------|-------------------------------|
--------------------------------|-------------------------------|
-------2----0---------2---------|-------------------------------|
-----------------4---------2----|-------4----2---------0--------|
---------------------------4----|-----------------4-------------|
--0--------------L--------------|--0----------------------------|


  W.                 
-------------------||
-------------------||
-------------------||
--L----------------||
-------------------||
-------------------||




Duration Legend
---------------
W - whole
H - half
Q - quarter
. - note dotted


Tablature Legend
----------------
L - tied note


Remember to play it crying. 
Login or Register to remove this ad.

1 comment on Roses and Wine

Beautiful Tabs

5

These are perfect tabs! I love it I use to play a more simple version from this website so this is kind of like a step up version of it and it is amazing! Keep up the good work hope to see other tabs from you.