Ads

Roses and Wine (Final Fantasy VIII) Guitar Tab

Submitted: Oct 27, 2014 by Chriscendo

5
Average: 5 (4 votes)
Download | Listen
Game: Final Fantasy VIII
Composer(s): Nobuo Uematsu
Style: Arrangement, Fingerstyle
Series: Final Fantasy

AutoScroll: Slow | Medium | Fast
                                Roses and Wine                                  


                                                    www.youtube.com/cjmmackinnon




      Q    Q    Q       Q    Q    Q       Q    Q    Q       Q    H         
E||--------5----3----|--2----5----0----|-------2----0----|--2----5--------|
B||------------------|-----------------|-----------------|----------------|
G||*-------6----4----|--2----6----0----|-------2----0----|--2----6--------|
D||*-----------------|-----------------|-----------------|----------------|
A||------------------|------------4----|-----------------|----------------|
D||---0--------------|--L--------------|--0--------------|--L-------------|


  Q    Q    Q       Q    Q    Q       Q    Q    Q       Q    H         
-------5----3----|--2----5----0----|-------2----0----|--2----5--------|
-----------------|-----------------|-----------------|----------------|
-------6----4----|--2----6----0----|-------2----0----|--2----6--------|
-----------------|-----------------|-----------------|----------------|
-----------------|------------4----|-----------------|----------------|
--0--------------|--L--------------|--0--------------|--L-------------|


  Q    Q    Q       Q    Q    Q       Q    Q    Q       Q    H         
-----------------|--0----L----L----|--2----L----L----|--L----L--------|
--3----L----L----|-----------------|-----------------|----------------|
-------2----0----|-------2---------|-----------------|-------2--------|
-----------------|--4---------2----|-------4----2----|--4-------------|
-----------------|------------4----|-----------------|----------------|
--0--------------|--L--------------|--0--------------|--L-------------|


  Q    Q    Q       Q    Q    Q       Q    Q    Q       Q    H         
--0----L----L----|--2----L----L----|--3----L----L----|--L----L--------|
-----------------|-----------------|-----------------|-------2--------|
-------0---------|-------0---------|-------2----0----|--2-------------|
------------4----|--2---------2----|-----------------|----------------|
-----------------|-----------------|--4--------------|--L-------------|
--2--------------|--L---------0----|-----------------|----------------|


  Q    Q    Q       Q    Q    Q       Q    Q    Q       Q    H         
--2----L----L----|--3----L----L----|--5----L----L----|--L----L--------|
-----------------|-----------------|-----------------|----------------|
-------2----0----|-------2---------|------------0----|-------6--------|
-----------------|--4---------2----|-------7---------|--7-------------|
-----------------|------------4----|-----------------|----------------|
--0--------------|--L--------------|--4--------------|--L-------------|


  Q    Q    Q       Q    Q    Q       Q    Q    Q       Q    H         
--7----L----L----|-----------------|--0----L----L----|--L----L--------|
-------0---------|--8----L----L----|-----------------|----------------|
-----------------|--0---------0----|------------0----|-------6--------|
------------7----|-------9---------|-------7---------|--7-------------|
-----------------|------------7----|--4--------------|--L-------------|
--5--------------|--L--------------|-----------------|----------------|


   Q    Q     Q        Q    Q     Q       Q    Q    Q       Q    H         
-------------------|-------------------|--5----L----L----|--L----L--------|
-------------------|--12----L-----L----|-----------------|----------------|
--11----L-----L----|-------------------|------------0----|-------6--------|
--------9----------|--------9----------|-------7---------|--7-------------|
-------------12----|---9----------9----|-----------------|----------------|
---9---------------|---L---------12----|--4--------------|--L-------------|


  Q    Q    Q       Q    Q    Q       Q    Q    Q       Q    H         
-----------------|-----------------|--0----L----L----|--L----L--------|
-------0---------|--8----L----L----|-----------------|----------------|
--7----L----L----|--0---------0----|------------0----|-------6--------|
------------7----|-------9---------|-------7---------|--7-------------|
-----------------|------------7----|--4--------------|--L-------------|
--5--------------|--L--------------|-----------------|----------------|


  Q    Q    Q       Q    Q    Q       Q    Q    Q       Q    H         
-----------------|--2----L----L----|--3----L----L----|--L----L--------|
--3----L----L----|-----------------|-----------------|-------0--------|
-------2----0----|-------2---------|-------0---------|--0-------------|
-----------------|--4---------2----|------------4----|----------------|
-----------------|------------4----|-----------------|----------------|
--0--------------|--L--------------|--5--------------|--L-------------|


  Q    Q    Q       Q    Q    Q       Q    Q    Q       Q    H           
--2----L----L----|--0----L----L----|-----------------|-----------------||
-----------------|-----------------|--3----L----L----|--L----L---------||
-------2----0----|-------2---------|-----------------|-------2--------*||
-----------------|--4---------2----|-------4----2----|--4-------------*||
-----------------|------------4----|-----------------|-----------------||
--2--------------|--L--------------|--0--------------|--L--------------||
Login or Register to remove this ad.

1 comment on Roses and Wine

That was fantastic!

5

That was fantastic!