Ads

Only a Plank Between One and Perdition (Final Fantasy VIII) Bass Tab

Submitted: Jun 26, 2009 by auriplane (Last updated: May 02, 2011)

4.666665
Average: 4.7 (3 votes)
Download | Listen
Game: Final Fantasy VIII
Composer(s): Nobuo Uematsu
Style: Transcription
Series: Final Fantasy

AutoScroll: Slow | Medium | Fast
   Final Fantasy 8 - Only a Plank Between One and Perdition BASS TAB
                         Song by Nobuo Uematsu

                 Tabbed by auriplane ([email protected])


Four-string bass, standard tuning.

    Intro

G |------------------------|
D |------------------------| x4
A |5--5--5--5--5--5--5--5--|
E |------------------------|

    Part A

G |------------------------|------------------------|
D |------------------------|------------------------| x10
A |3--4--3--6--4-----3--4--|3--6--4-----3--4--3--4--|
E |---------------3--------|---------3--------------|

    Part B

G |------------------------|
D |------------------------| x6
A |6--6--6--6--6--6--6--6--|
E |------------------------|

G |------------------|
D |------------------| x8
A |6--7--6--9--7-----|
E |---------------6--|

G |------------------|------------------------|
D |------------------|------------------------|
A |6--7--6--7--6--7--|6--9--7-----6--7--6--7--|
E |------------------|---------6--------------|

    Repeat back to Part A.
Login or Register to remove this ad.

3 comments on Only a Plank Between One and Perdition

Hehe, aw, four stars, but no

Hehe, aw, four stars, but no comment. Well, I checked the tab, and unless I missed something, it's accurate. Guess I'll never know why it got rated down unless the rater sees this comment and tells me what needed work. Well? What needed work?

Hmm, maybe it was the shitty GP5 :-)

EDIT: This song is great, though. Someone should do a cover.

someone has done a

someone has done a cover
songelereveur has made a cover for this with marcpapeghin on youtube featuring songelereveur on bass and guitar and marcpapeghin on french horn
its awesome i have the video on my psp

I'm going to fo a collab with

5

I'm going to fo a collab with someone on youtube of this song :)