Ads

Odeka ke Chocobo (Final Fantasy VIII) Guitar Tab

Submitted: Jun 11, 2010 by Daugreano

4
Average: 4 (2 votes)
Download | Listen
Game: Final Fantasy VIII
Composer(s): Nobuo Uematsu
Style: Alternate picking, Transcription
Series: Final Fantasy

AutoScroll: Slow | Medium | Fast
Song: Odeka ke Chocobo
game: Final Fantasy VIII
Composer: Nobuo Uematsu
Tabbed by: Daugreano 


Guitar: 

   S  S  S  S  S  S  S  S  S  S  S  S  S  S  S  S    S  S  S  S  S  S  S  S  S  S  S  S  S  S  S  S
E|-------------------------------------------------|-------------------------------------------------|
B|-------3--------1-----1-----3-----3--------1-----|-------3--------1-----1-----3-----3--------1-----|
G|-0--------0--------------0-----0-----------------|-0--------0--------------0-----0-----------------|
D|-------------3-----------------------3--------3--|-------------3-----------------------3--------3--|
A|-------------------------------------------------|-------------------------------------------------|
E|-------------------------------------------------|-------------------------------------------------|

   E   S  S  S  S  S  S  S   E   Q    S    S  T T S  S  Q    S  S  T T S  S  S
E|-----------0---------------------------|--------------------------------0--1----|
B|-3---0--------3--0-----0-------0-------|---------------------------0-3----------|
G|--------0-----------0------0--------2--|-0--0-2-0-----0-------0--0--------------|
D|---------------------------------------|-----------3-------3--------------------|
A|---------------------------------------|----------------------------------------|
E|---------------------------------------|----------------------------------------|

   E   S  S  S  S  S  S  S   E   Q    S    S  T T S  S  Q    S  S  T T S  S  S
E|-----------0---------------------------|--------------------------------0--1----|
B|-3---0--------3--0-----0-------0-------|---------------------------0-3----------|
G|--------0-----------0------0--------2--|-0--0-2-0-----0-------0--0--------------|
D|---------------------------------------|-----------3-------3--------------------|
A|---------------------------------------|----------------------------------------|
E|---------------------------------------|----------------------------------------|

   E   S  S  S  S  S  S  E   E   Q    S    E   S  S  S  S  S  S  S  T T S  S  Q
E|-0------------------0------3-----------|-----------------------------------------|
B|-----1-----------1-----3-------3----0--|-1------------------1--0--0-1-0-----0----|
G|--------2-----2------------------------|-----2-----------2---------------2-------|
D|-----------4---------------------------|--------4--0--4--------------------------|
A|---------------------------------------|-----------------------------------------|
E|---------------------------------------|-----------------------------------------|

   E   S  S  S  S  S  S  E   E   Q    S    S  T T S  S  Q    S  S  T T S  S  E   E
E|-0------------------0------3-----------|-----------------------------------0---2---|
B|-----1-----------1-----3-------3-------|------0--------------------0-1--3----------|
G|--------2-----2---------------------0--|-2--2---2--0--2----0--2--2-----------------|
D|-----------4---------------------------|-------------------------------------------|
A|---------------------------------------|-------------------------------------------|
E|---------------------------------------|-------------------------------------------|

Login or Register to remove this ad.