Ads

Love Grows (Final Fantasy VIII) Guitar Tab

Submitted: Sep 17, 2012 by Chriscendo

5
Average: 5 (7 votes)
Download | Listen
Game: Final Fantasy VIII
Composer(s): Nobuo Uematsu
Style: Arrangement, Fingerstyle
Series: Final Fantasy

AutoScroll: Slow | Medium | Fast
                                  Love Grows                                    


                                                     Arranged by Chris MacKinnon
Guitar



      E  E  E  E  E  E  E  E     E  E  E  E  E  E  E  E   
E||---------------------------|--------------------------|
B||---------3-----2-----------|--------0-----2-----------|
G||*--2--------------2--------|--2--------------2--------|
D||*-----2--L--2--L-----2-----|-----2--L--2--L-----2-----|
A||---0-----------------------|--0-----------------------|
E||------------------------0--|-----------------------0--|


  E  E  E  E  E  E  E  E     E  E  E  E  E  E  Q       E  E  E  E  E  E  E  E   
--------------------------|-------------------------|--------------------0-----|
--------3-----2-----------|--------0-----2----------|--------0-----2-----------|
--2--------------2--------|--2--------------2-------|--2--------------2--L--2--|
-----2--L--2--L-----2-----|-----2--L--2--L-----2----|-----2--L--2--------------|
--0-----------------------|--0----------------------|--0-----------------------|
-----------------------0--|--------------------0----|--------------4-----------|


                             ^                                      ^          
  E  E  E  E  E  E  E  E     E  E  E  E  E  E  E  E     E  E  E  E  Q    Q     
--------------------------|--------------------------|------------------------|
--2-----------------------|--0--2--------------------|--0---------------------|
-----2--------------------|--2-----2--------2-----2--|-----2--------1---------|
--------2--------2--0--2--|--0--------0--------4-----|--------2-----2----2----|
--------------0-----2--4--|--------------4--L--L-----|-----------2--2---------|
--2--------2--------------|--------------------------|--0-----------0---------|


              ^                                        
  E  E  E  E  E  E  E  E     E  E  E  E  E   E  E  E   
--------------------------|--4------------------------|
--------0-----2-----5-----|-----5--------4h--5--------|
--2--------2--2--L--L-----|--------4-----4------4-----|
-----2--L-----4--L--L-----|-----------6--6---------6--|
--0-----------2--2--L--3--|--4-----------4------------|
--------------------------|---------------------------|


                                          ^                                     
  E   E  E  E  E  E  E  E     E  E  E  E  Q    Q       E  E  E  E  E  E  E  E   
--4h--5--------------0--2--|--0----------------0----|--5--------5--4-----2-----|
---------7-----------------|------------------------|--------------0-----------|
------------7--6-----4--2--|--2-----------1----1----|--6--------6--------2-----|
--0---------------0--------|-----2--------2---------|-----------------4--2-----|
---------------------------|--------2-----2---------|-----------0--4--------4--|
---------------------------|--0--------0--0---------|-----2--4-----------------|


  E  E  E  E  E   E  E  E     E  E  E  E  E  E  E  E   
--2-----0---------------0--|--2--------2--------------|
--2------------------2-----|--------------5--3-----2--|
--------------1h--2--1-----|--------2--L--------2-----|
--------2--4------------2--|--0--4--------4-----------|
--4------------------------|--------------2-----------|
-----4---------------------|--------------------------|


  E  E   E  E  Q    Q       E  E  E  E  E  E  E  E     E  E  E  E  E  E  E  E   
-------------------------|--------------------------|--0-----------L--0--------|
--0----------------------|--------0-----2-----3-----|-----------7--6-----------|
---------------1---------|--2-----------0-----------|--------6-----------7-----|
------------2-------2----|-----2--L--2-----2--L--2--|-----7-----------------7--|
-----0h--2---------------|--0-----------0-----------|--5-----------5-----------|
--0----------------------|--------------------------|--------------------------|


                             ^                                                 
                                       |----3----|                             
  E  E  E  E  E  E  E  E     Q    Q    Q    Q    Q       Q    E  E  Q    Q     
--------------4-----------|----------------------0----|--4-------2--2---------|
--------5-----------0-----|-----------------2----2----|--5-------3--3---------|
--6--------------------1--|--2---------2----2----2----|--6-------2--2---------|
--6--6-----6-----6--------|--2------------------------|-----------------------|
--4-----------------------|--0----0----0--------------|-----------------------|
--------------------0-----|---------------------------|--4----4-----2----0----|


            |----3----|                             
  Q    Q    Q    Q    Q       Q    E  E  Q    Q     
--L---------2----4----5----|----------0--0---------|
--L---------3----5----7----|--7--------------------|
--L---------4----6----7----|--7-------6--6---------|
---------------------------|--7-------7--7----0----|
-------0-------------------|--0----0----------0----|
--2---------0--------------|-------------0---------|


            |--3-|  |-3|                              
  Q    Q    Q    E  E  Q       Q.     E  E  E  E  E   
--L--------------------0----|--0---------3--2--3--5--|
-----------------3----------|--0------0--0-----0--3--|
------------2----------1----|--0------0--0--2--------|
------------2----4----------|------------------------|
--4----2----0---------------|------------------------|
--4----0------------0-------|--3---------2-----------|


            |----3----|                                         |----3----|     
  Q    Q    Q    Q    Q       Q.     E  E  E  E  E     H        Q    Q    Q     
--4----5----7----0---------|---------0-----0--------|---------------------0----|
--5----7----0---------7----|--7---------------------|--------------------------|
------------7----6----7----|--6------6--8--6--6-----|--0-------------6----6----|
-----------------6----6----|--7------7--7-----7--7--|-----------7----7----7----|
---------------------------|--0---------L--------9--|--7--------5--------------|
--0---------0--------------|------------------------|--0-----------------------|


         ^                                                               
                                  |----3----|                            
  Q.     E  Q    Q       H        Q    Q    Q       Q.     E  Q    Q     
--4-------------------|----------------4----5----|--4------0--0----4----|
--5------7--7---------|--L--------7----5----7----|--5--------------5----|
--6------7--7---------|--L--------7----6----7----|--6------6--6----6----|
--4------7--7---------|--L--------9--------------|---------6--6---------|
---------5--L----4----|--------------------------|----------------------|
----------------------|--7--------0--------------|--4-------------------|


  Q    Q    Q    Q       E  E  E  E  Q    E  S S    Q.     E  E  E  E  E   
--2--------------0----|--0-----5-----------------|------------------------|
----------------------|-----0--7--3--3-----------|--2------2--2--0--------|
--3--------------6----|--6--7--7--2--1-------2-4-|--2---------------2--1--|
--4----2----0---------|--0----------------4------|--0---------------------|
-----------------4----|--------------------------|------------------------|
--2-------------------|--------------------------|------------0-----------|


                         ^                  
  H        H             W                  
---------------------||-------------------||
---------------------||-------------------||
--4-----------------*||--2----------------||
--4--------2--------*||--2----------------||
--2------------------||--0----------------||
---------------------||-------------------||
Login or Register to remove this ad.

2 comments on Love Grows

Excellent tab, can't wait to

Excellent tab, can't wait to see more from you

AGREED!!!!!

AGREED!!!!!