Ads

Junction (Final Fantasy VIII) Guitar Tab

Submitted: Jan 23, 2015 by Exdeath

5
Average: 5 (5 votes)
Download | Listen
Game: Final Fantasy VIII
Composer(s): Nobuo Uematsu
Style: Arrangement, Fingerstyle
Series: Final Fantasy

AutoScroll: Slow | Medium | Fast
  Junction                                     


                         E  E  E  E  E  E  E  E     E  E  E  E  E  E  E  E   
E||-------------------|--------------------------|-----------------------7--|
B||-------------------|--8--------4--7--4--------|-----------4--7--4--7-----|
G||-------------------|--------4-----------4-----|--------4-----------------|
D||-------------------|-----5-----------------5--|-----5--------------------|
A||-------------------|--7--------------------L--|--7--------------------L--|
E||-------------------|--------------------------|--------------------------|


  E  E  E  E  E  E  E  E     E  E  E  E  E  E  E  E   
--5-----------------------|-----------------------5--|
-----------2--5--2--------|-----------2--5--2--5-----|
--------2-----------2-----|--------2-----------------|
-----3-----------------3--|-----3--------------------|
--5--------------------L--|--5--------------------L--|
--------------------------|--------------------------|


  E  E  E  E  E  E  E  E     E  E  E  E  E  E  E  E   
--------------------------|-----------------------7--|
--8--------4--7--4--------|-----------4--7--4--7-----|
--------4-----------4-----|--------4-----------------|
-----5-----------------5--|-----5--------------------|
--7--------------------L--|--7--------------------L--|
--------------------------|--------------------------|


  E  E  E  E  E  E  E  E     E  E  E  E  E  E  E  E   
--5-----------------------|-----------------------5--|
-----------2--5--2--------|-----------2--5--2--5-----|
--------2-----------2-----|--------2-----------------|
-----3-----------------3--|-----3--------------------|
--5--------------------L--|--5--------------------L--|
--------------------------|--------------------------|


  E  E  E  E  E  E  E  E     E  E  E  E  E  E  E  E   
--------------------------|--------------------------|
--8--------L--4--------L--|--------------4-----4--8--|
-----------5-----5--------|-----------5-----5--------|
-----5--7-----------7--5--|-----5--7-----------------|
--6--------L--6--------L--|--6--------------------L--|
--------------------------|--------------------------|


  E  E  E  E  E  E  E  E     E  E  E  E  E  E  E  E   
--------------------------|--------------------------|
--6--------L--2--------L--|-----------------------6--|
-----------3-----3--------|-----------3--6--3--6-----|
-----3--5-----------5--3--|-----3--5-----------------|
--4--------L--4--------L--|--4--------------------L--|
--------------------------|--------------------------|


  E  E  E  E  E  E  E  E     E  E  E  E  E  E  E  E   
--------------------------|--------------------------|
--8--------L--4--------L--|--------------4-----4--8--|
-----------5-----5--------|-----------5-----5--------|
-----5--7-----------7--5--|-----5--7-----------------|
--6--------L--6--------L--|--6--------------------L--|
--------------------------|--------------------------|


  E  E  E  E  E  E  E  E     E  E  E  E  E  E  E  E   
--------------------------|--------------------------|
--6--------L--2--------L--|-----------------------6--|
-----------3-----3--------|-----------3--6--3--6-----|
-----3--5-----------5--3--|-----3--5-----------------|
--4--------L--4--------L--|--4--------------------L--|
--------------------------|--------------------------|


  E  E  E  E  E  E  E  E     E  E  E  E  E  E  E  E   
--------------------------|-----------------------7--|
--8--------4--7--4--------|-----------4--7--4--7-----|
--------4-----------4-----|--------4-----------------|
-----5-----------------5--|-----5--------------------|
--7--------------------L--|--7--------------------L--|
--------------------------|--------------------------|


  E  E  E  E  E  E  E  E     E  E  E  E  E  E  E  E   
--5-----------------------|-----------------------5--|
-----------2--5--2--------|-----------2--5--2--5-----|
--------2-----------2-----|--------2-----------------|
-----3-----------------3--|-----3--------------------|
--5--------------------L--|--5--------------------L--|
--------------------------|--------------------------|


  E  E  E  E  E  E  E  E     E  E  E  E  E  E  E  E   
--------------------------|-----------------------7--|
--8--------4--7--4--------|-----------4--7--4--7-----|
--------4-----------4-----|--------4-----------------|
-----5-----------------5--|-----5--------------------|
--7--------------------L--|--7--------------------L--|
--------------------------|--------------------------|


  E  E  E  E  E  E  E  E     E  E  E  E  E  E  E  E   
--5-----------------------|-----------------------5--|
-----------2--5--2--------|-----------2--5--2--5-----|
--------2-----------2-----|--------2-----------------|
-----3-----------------3--|-----3--------------------|
--5--------------------L--|--5--------------------L--|
--------------------------|--------------------------|


  E  E  E  E  E  E  E  E     E  E  E  E  E  E  E  E   
--------------------------|--------------------------|
--8--------L--4--------L--|--------------4-----4--8--|
-----------5-----5--------|-----------5-----5--------|
-----5--7-----------7--5--|-----5--7-----------------|
--6--------L--6--------L--|--6--------------------L--|
--------------------------|--------------------------|


  E  E  E  E  E  E  E  E     E  E  E  E  E  E  E  E   
--------------------------|--------------------------|
--6--------L--2--------L--|-----------------------6--|
-----------3-----3--------|-----------3--6--3--6-----|
-----3--5-----------5--3--|-----3--5-----------------|
--4--------L--4--------L--|--4--------------------L--|
--------------------------|--------------------------|


  E  E  E  E  E  E  E  E     E  E  E  E  E  E  E  E   
--------------------------|--------------------------|
--8--------L--4--------L--|--------------4-----4--8--|
-----------5-----5--------|-----------5-----5--------|
-----5--7-----------7--5--|-----5--7-----------------|
--6--------L--6--------L--|--6--------------------L--|
--------------------------|--------------------------|


  E  E  E  E  E  E  E  E     E  E  E  E  E  E  E  E   
--------------------------|--------------------------|
--6--------L--2--------L--|-----------------------6--|
-----------3-----3--------|-----------3--6--3--6-----|
-----3--5-----------5--3--|-----3--5-----------------|
--4--------L--4--------L--|--4--------------------L--|
--------------------------|--------------------------|


  E  E  E  E  E  E  E  E     E  E  E  E  E  E  E  E   
--------------------------|-----------------------7--|
--8--------4--7--4--------|-----------4--7--4--7-----|
--------4-----------4-----|--------4-----------------|
-----5-----------------5--|-----5--------------------|
--7--------------------L--|--7--------------------L--|
--------------------------|--------------------------|


  E  E  E  E  E  E  E  E     E  E  E  E  H                              
--5-----------------------|-----------------------|-------------------||
-----------2--5--2--------|-----------2--5--------|-------------------||
--------2-----------2-----|--------2--------------|-------------------||
-----3-----------------3--|-----3-----------------|-------------------||
--5--------------------L--|--5-----------L--------|-------------------||
--------------------------|-----------------------|-------------------||
Login or Register to remove this ad.