Ads

Force Your Way (Final Fantasy VIII) Guitar Tab

Submitted: Jun 09, 2014 by JordanVS (Last updated: Jul 17, 2014)

4.666665
Average: 4.7 (12 votes)
Download | Listen
Game: Final Fantasy VIII
Composer(s): Nobuo Uematsu
Style: Arrangement, Fingerstyle
Series: Final Fantasy

This song is also called Boss Battle Theme

AutoScroll: Slow | Medium | Fast
Force Your Way                                            
Boss Battle Theme
Final Fantasy VIII
Nobuo Uematsu
JordanVS


*4/4
*Tempo = 172


     E  E  E  E  E  E  E  E     E  E  E  E  E  E  E  E     E  E  E  E  E  E  E  E   
E||--------------------------|--------------------------|--------------------------|
B||--5--------7--------8-----|-----3--------5-----------|--5--------7--------8-----|
G||--5--------7--------9-----|-----4--------5-----------|--5--------7--------9-----|
D||--------------------------|--------------------------|--------------------------|
A||--0--0--0--0--0--0--0--0--|--0--0--0--0--0--0--0--0--|--0--0--0--0--0--0--0--0--|
E||--------------------------|--------------------------|--------------------------|

		          *Segno

  E  E  E  E  E  E  E  E     E  E  E  E  E  E  E  E     E  E  E  E  E  E  E  E   
-----7--------5-----------|--------------------------|--------------------------|
-----8--------5-----3-----|--5--------7--------8-----|-----3--------5-----------|
-----7--------------4-----|--5--------7--------9-----|-----4--------5-----------|
--------------------------|--------------------------|--------------------------|
--0--0--0--0--0--0--0--0--|--0--0--0--0--0--0--0--0--|--0--0--0--0--0--0--0--0--|
--------------------------|--------------------------|--------------------------|


  E  E  E  E  E  E  E  E     E  E  E  E  E  E  E  E  E  E     E  E  E  E  E  E   E  E   
--------------------------|-----7--------5-----------------|---------------------------|
--5--------7--------8-----|-----8--------5-----3-----5-----|--7--------9--------10-----|
--5--------7--------9-----|-----7--------------4-----5-----|--7--------9--------11-----|
--------------------------|--------------------------------|---------------------------|
--0--0--0--0--0--0--0--0--|--0--0--0--0--0--0--0--0--------|---------------------------|
--------------------------|--------------------------0--0--|--7--7--7--7--7--7---7--7--|


  E  E  E  E  E  E  E  E     E  E  E  E  E  E   E  E     E  E  E  E  E  E   E  E   
--------------------------|---------------------------|-----9--------7------------|
--------------7-----------|--7--------9--------10-----|-----9--------7-----10-----|
-----9--------7-----------|--7--------9--------11-----|-----9--------------11-----|
-----9--------------------|---------------------------|---------------------------|
--------------------------|---------------------------|---------------------------|
--7--7--7--7--7--7--7--7--|--7--7--7--7--7--7---7--7--|--7--7--7--7--7--7---7--7--|


  E  E  E  E  E  E   E  E     E  E  E  E  E  E  E  E     E  E  E  E  E  E   E  E   
---------------------------|--------------------------|---------------------------|
--7--------9--------10-----|--------------7-----------|--7--------9--------10-----|
--7--------9--------11-----|-----9--------7-----------|--7--------9--------11-----|
---------------------------|-----9--------------------|---------------------------|
---------------------------|--------------------------|---------------------------|
--7--7--7--7--7--7---7--7--|--7--7--7--7--7--7--7--7--|--7--7--7--7--7--7---7--7--|


  E  E  Q    Q     Q     Q     Q        E  E   E  E   E   E  E   E     E   E  E  E  E  E  E  E   
-----9-------7-----9----10----12----|-------------------------------|------------5-----5-----5--|
-----9-------7----10----10----12----|--10--9--10---------10-----10--|-----10--------------------|
------------------------------------|-------------9--10------9------|--7------5-----4-----2-----|
-------------------0----------------|-------------------------------|---------------------------|
-------------7----------------------|---0------0------0------0------|--0------0-----0-----0-----|
--7-----7----------------8-----7----|-------------------------------|---------------------------|


  E  E  E  E  E  E  E  E     E  E  E  E  E  E  E  E     E  E  E  E  E  E  E  E   
--------------------------|--------------------------|--------------------------|
--------------------------|--------------------5--6--|--5--4--5--------5-----5--|
--1--2--4--1--2--4--5--2--|--4--5--7--4--5--7--------|-----------4--5-----4-----|
--------------------------|--------------------------|--------------------------|
--0-----0-----0-----0-----|--0-----0-----0-----0-----|--------------------------|
--------------------------|--------------------------|--0-----0-----0-----0-----|


  E  E  E  E  E  E  E  E     E  E  E  E  E  E  E  E     E  E  E  E  E  E  E  E   
--------------------------|--------------------------|--------------------------|
-----5-----5-----5-----5--|--------------------------|-----------1--0--2--4--7--|
--2-----0-----------------|--------------------------|-----0--2-----------------|
--------------4-----2-----|--1--2--4--1--2--4--5--2--|--4-----0-----------------|
--------------------------|--------------------------|--5-----------2-----2-----|
--0-----0-----0-----0-----|--0-----0-----0-----0-----|--------------------------|


  E  E   E  E   E  E  E  E     E  E  E  E  E  E  E  E      E  E  E  E  E  E  E  E   
--8-------------------------|--------------------------|--11-----9-----7-----6-----|
--------12-----10-----8-----|--6-----4-----------------|---------------------------|
----------------------------|--------------6-----5-----|---------------------------|
----------------------------|--------------------------|---6--6-----6-----6-----6--|
--8--8------8------8-----8--|--4--4-----4-----4-----4--|---------------------------|
----------------------------|--------------------------|---------------------------|


  E  E   E  E  E  E  E  E     Q    E  E  E  E   Q        E  E  E  E  Q     Q     
---------------7-----9-----|-------------------------|--------------------------|
--9-----11-----------------|--7----7--8-----8--------|------8-----8--7----------|
---------------0--0-----0--|--7----7--9-----9---9----|---9--9-----9--7-----9----|
---------------------------|-------------------11----|--11----------------11----|
--7--7------7--------------|-------------------------|--------------------------|
---------------------------|--7-------7---------7----|------7--------7----------|


  Q    E  E  E  E   Q        E  E  E  E  E   E  E   E      Q     E   E  E   E  Q     
-------------------------|-----------------------------|----------------------------|
--7----7--7-----7---7----|---7--7-----7--7------7------|--10----10--11-----11--8----|
--7----7--7-----7---7----|---7--7-----7--7------7------|--10----10--12-----12--9----|
-------------------------|-----------------------------|---0---------0---------0----|
-------------------------|------7-----7--9--10--7------|----------------------------|
--7----7--9-----9--10----|--10---------------------10--|----------------------------|


  E   E  E   E   Q    Q        Q     E   E  E   E   Q        E   E  E   E   E   E   E  E   
---------------------------|-----------------------------|--------------------------------|
--8--11-----11--10----8----|--10----10--10-----10--10----|--10--10-----10--10------10-----|
--9--12-----12--10----9----|--10----10--10-----10--10----|--10--10-----10--10------10-----|
------0----------0---------|---0-----0-------------------|------------------7-------------|
---------------------------|-------------7------7---8----|---8--10-----10------10---8--7--|
---------------------------|-----------------------------|--------------------------------|


  E  E  E  E  E  E  E  E     E  E  E  E  E  E  E  E     E  E  E  E  E  E  E  E   
--------------------------|-----------------4--7--6--|--5--4--5--7--5--7--9--7--|
--------------------4-----|--4--5--7--5--7-----------|--------------------------|
--------4-----4--6-----6--|--------------------------|--------------------------|
--6--8-----8--------------|--------------------------|--------------------------|
--------------------------|--------------------------|--0-----------------------|
--4-----------L--4--4--4--|-----------------4--------|-----------7--L-----9-----|


  E   E  E   E   E   E   E   E      Q.      E  Q     Q       E   E   Q     H         
--9--11--9--11--12--14--16--18--|--19------16--L----------|-------------------------|
--L---L-------------------------|-------------------16----|--L------12--------------|
--------------------------------|-------------------------|---------------13--------|
--------------------------------|-------------------------|-------------------------|
--------------------------------|-------------------------|-----11---L--------------|
--L--11---------12------14------|--16---------------------|--L----------------------|


                                             ^ v    ^                        
   Q.      E  Q    Q       E  Q.     Q    E  S S    E  E  E  E  E  E  E  E   
--------------L---------|-----5------2-----------|--------------------------|
--10--------------------|------------2-----------|--------------------------|
----------11--L----6----|--L---------------------|--------------------------|
------------------------|--------------------6-6-|--6-----------------------|
---9-------L-------7----|--L--4------0-------6-6-|--6-----------------------|
------------------------|-----------------2--4-4-|--4--4--4--4--4--4--4--4--|


  E  E  E  E  E  E  E  E     E  E  E  E  E  E  E  E     E  E  E  E  E  E  E  E   
--------------------------|--------------------------|--------------------------|
--------------------------|--------------------------|--------------------------|
--------------------------|--------------------------|--------------------4--6--|
--L-----------------------|--------------------------|--4-----4--6--4--6--------|
--L-----------------------|-----------2-----2--4--6--|-----6--------------------|
--4--4--4--4--4--4--4--4--|--4--2--4-----4-----------|--------------------------|


  E  E  E  E  E  E  E  E     E  E  E  E  E  E  E  E     E  E  E  E  E  E  E  E   
--4-----------------------|--------------4-----------|--6--------7--9-----------|
--4-----------------------|--7-----------4-----------|--5--------7--9-----------|
--4-----------------------|--6-----------------------|--------------------------|
--------------------------|--------------------------|--------------6--6--6--6--|
--------------------------|--------------------------|--------------------------|
--4--4--4--4--4--4--4--4--|--4--4--4--4--4--4--4--4--|--4--4--4--4--------------|


  E  E  E  E   E  E  E  E     E  E  E  E  E  E  E  E     E  E  E  E  E  E  E  E   
--L-----------11-----9-----|--7-----------4-----------|--L-----------7-----------|
--L------------------------|--7-----------4-----------|--L-----------4-----------|
---------------------------|--------------------------|--------------------------|
--6--6--6--6---6--6--6--6--|--------------------------|--------------------------|
---------------------------|--------------------------|--------------------------|
---------------------------|--4--4--4--4--4--4--4--4--|--4--4--4--4--4--4--4--4--|


  E  E  E  E  E  E  E  E     E  E  E  E  E  E  E  E     E  E  E  E  E  E  E  E   
--6-----------------------|--------------------------|--4-----------------------|
--7-----------7-----------|--L-----------------------|--4-----------------------|
--------------6-----------|--L-----------------------|--4-----------------------|
--------------------------|--------------------------|--------------------------|
--------------------------|--------------------------|--------------------------|
--4--4--4--4--4--4--4--4--|--4--4--4--4--4--4--4--4--|--4--4--4--4--4--4--4--4--|


  E  E  E  E  E  E  E  E     E  E  E  E  E  E  E  E     E  E  E  E   E  E  E  E   
--------------4-----------|--6--------7--9-----------|--L-----------11-----9-----|
--7-----------4-----------|--5--------7--9-----------|--L------------------------|
--6-----------------------|--------------------------|---------------------------|
--------------------------|--------------6--6--6--6--|--6--6--6--6---6--6--6--6--|
--------------------------|--------------------------|---------------------------|
--4--4--4--4--4--4--4--4--|--4--4--4--4--------------|---------------------------|


  E  E  E  E  E  E  E  E     E  E  E  E  E  E  E  E     E  E  E  E  E  E  E  E   
--7-----------4-----------|--------------2-----------|--4-----------------------|
--7-----------5-----------|--------------2-----------|--4-----------------------|
--------------------------|--------------------------|--5-----------------------|
--------------------------|--------------------------|--------------------------|
--------------------------|--------------------------|--------------------------|
--0--0--0--0--0--0--0--0--|--2--2--2--2--2--2--2--2--|--4--4--4--4--4--4--4--4--|


  E  E  E  E  E  E  E  E     E  E  E  E  E  E  E  E     E  E  E  E  E  E  E  E   
--L-----------------------|--------------------------|--------------------------|
--L-----------------------|--------------------------|--------------------------|
--L-----------------------|--4-----------------------|--2-----------4-----------|
--------------------------|--4-----------------------|--------------------------|
--------------------------|--2--2--2--2--2--2--2--2--|--2--2--2--2--2--2--2--2--|
--4--4--4--4--4--4--4--4--|--------------------------|--------------------------|


  E  E  E  E  E  E  E  E     E  E  E  E  E  E  E  E     E  E  E  E  E  E  E  E   
--------------------------|--------------2-----------|--------------------------|
--2--------3--5-----------|--L-----------------5-----|--3-----------0-----------|
--2-----------------------|--------------------------|--0-----------------------|
--------------------------|--------------------------|--------------------------|
--0--0--0--0--0--0--0--0--|--0--0--0--0--0--0--0--0--|--------------------------|
--------------------------|--------------------------|--3--3--3--3--3--3--3--3--|


  E  E  E  E  E  E  E  E     E  E  E  E  E  E  E  E     E  E  E  E  E  E  E  E   
--------------------------|--------------------------|--------------------------|
--L-----------3-----------|--2-----------------------|--------------------------|
--------------------------|--2-----------2-----------|--------------2-----------|
--------------------------|--------------------------|--4-----------------------|
--------------------------|--0--0--0--0--0--0--0--0--|--0--0--0--0--0--0--0--0--|
--3--3--3--3--3--3--3--3--|--------------------------|--------------------------|


  Q    E  E  H           H        E  E  E  E     E  E  E  E  E  E  E  E   
----------------------|-----------------------|--0--------2--------3-----|
--3----1--0-----------|-----------------0-----|--1--------3--------5-----|
-------------2--------|--L--------0--2-----0--|--2-----------------------|
--3-------------------|--L--------------------|--------------------------|
----------------------|-----------------------|--0--0--0--0--0--0--0--0--|
----------------------|-----------------------|--------------------------|


  E  E  E  E  E  E  E  E     Q    E  E  Q    Q       E  Q.     E  E  E  E     Q    E  E  Q    Q     
--------------0-----------|-----------------------|------------------------|--0-------2-------3----|
-----3--------1-----------|--3----1--0------------|------------------0-----|--1-------3-------5----|
-----4--------2-----------|-------------2---------|--L---------0--2-----0--|--2-------2-------5----|
--------------------------|--0-------2--L----3----|--L--5------------------|-----------------------|
--0--0--0--0--0--0--0--0--|-----------------------|------------3-----2-----|--0-------0-------0----|
--------------------------|-----------------------|------------------------|-----------------------|

								*Da Segno
  E  E  Q    Q    Q       Q    E  E  Q    Q       E  Q.     E  E  E  E     H        H         
-------------0---------|--0-------2-------3----|-----7------5-----------|--0-----------------|
-----3-------1---------|--1-------3-------5----|-----7------5-----3-----|--1-----------------|
-----4-------2---------|--2-------2-------5----|-----7------------4-----|--2-----------------|
-----7-----------------|-----------------------|---------------2--0--5--|--------------------|
-----0-------0---------|--0-------0-------0----|-----0------0-----------|--0-----------------|
-----------------------|-----------------------|------------------------|--------------------|


-----------||
-----------||
-----------||
-----------||
-----------||
-----------||




Duration Legend
---------------
W - whole
H - half
Q - quarter
E - 8th
S - 16th
T - 32nd
X - 64th
. - note dotted
|-n-|  - n-tuplets


Tablature Legend
----------------
L - tied note
^ - brush up
v - brush down
Login or Register to remove this ad.

5 comments on Force Your Way

Trigger warning.

3

I came and saw the 3 star rating, I'm afraid I have to rate it that as well. The title triggered me and I just don't know what else to do about it. Great tab though.

the tabber has no control

the tabber has no control over the title of the song, the rating should be for the tab itself

please go back to tumblr

please go back to tumblr

what the fuck

what the fuck

This tab is beast man! I

5

This tab is beast man! I don't know why, but I must have missed this tab when I was reading through yours. I think I would've remembered it.

And not beast in the "not actually possible" kind of way. It's definitely *recordable*, with a good deal of practice.

I *think* my only comments are on the section that starts:

  E  E  E  E  E  E  E  E     E  E  E  E  E  E  E  E     E  E  E  E  E  E  E  E   
--4-----------------------|--------------4-----------|--6--------7--9-----------|
--4-----------------------|--7-----------4-----------|--5--------7--9-----------|
--4-----------------------|--6-----------------------|--------------------------|
--------------------------|--------------------------|--------------6--6--6--6--|
--------------------------|--------------------------|--------------------------|
--4--4--4--4--4--4--4--4--|--4--4--4--4--4--4--4--4--|--4--4--4--4--------------|

So, in that section (including the stuff that comes after those three measures), there are a couple spots where I think the melody should be a 3rd but it's given as a perfect 4th/double stop. I'd utilize that octave-up in the bass in a spot or two extra, to make room for the 3rds, and just to make it easier on myself sometimes.

Good show man! Can't believe I missed this one.