Ads

Fithos Lusec Wecos Vinosec (Final Fantasy VIII) Guitar Tab

Submitted: Jul 26, 2011 by Max_depa (Last updated: Jul 28, 2011)

4.833335
Average: 4.8 (6 votes)
Download | Listen
Game: Final Fantasy VIII
Composer(s): Nobuo Uematsu
Style: Arrangement, Fingerstyle
Series: Final Fantasy

AutoScroll: Slow | Medium | Fast
Fithos Lusec Wecos Vinosec - Final Fantasy VIII
Arranged by: Max_depa
Composed by: Nobuo Uematsu


     Q    E  E  Q    E  E     Q    E  E  Q    E  E     Q    E  E  Q    E  E   
E||------------------------|------------------------|------------------------|
B||------------------------|------------------------|--1----1----------------|
G||--2----2----------------|--4----4----------------|------------------------|
D||--2----2--2--2----2--2--|--2----2--2--2----2--2--|--2----2--2--2----2--2--|
A||--0----0--0--0----0--0--|--0----0--0--0----0--0--|--0----0--0--0----0--0--|
E||------------------------|------------------------|------------------------|


  E  E  E  E  Q    E  E     Q    E  E  T S T T S T Q     
-------------------------|-------------------0-1-4-5----|
--3--3--3----------1-----|-------------0-1-4------------|
--2--2--2----------------|--2----2----------------------|
--2--2--2--2--2-------2--|--2----2--2-------------------|
--0-----0--0--0----0--0--|--0----0--0-------------------|
-------------------------|------------------------------|


  Q    E  E  T S T T S T Q       Q    E  E  T S T T S T Q     
-------------------0-1-4-5----|-------------------0-1-4-5----|
-------------0-1-4------------|--1----1-----0-1-4------------|
--4----4----------------------|------------------------------|
--2----2--2-------------------|--2----2--2-------------------|
--0----0--0-------------------|--0----0--0-------------------|
------------------------------|------------------------------|


  E  E  E  E  T S T T S T Q       Q    Q    Q    Q       Q    H.            
--------------------0-1-4-5----|----------------------|--------------------|
--3--3--3-----0-1-4------------|--4----4--------------|--2----2------------|
--2--2--2----------------------|--4----4--------------|--2----2------------|
--2--2--2--2-------------------|--5----5--------------|--3-----------------|
--0-----0--0-------------------|------------2---------|--------------------|
-------------------------------|-----------------3----|--2-----------------|


  Q    Q.     E  E  E     E  E  H.              Q    Q    E  E  E  E   
-----------------------|---------------------|------------------------|
--4----4---------------|--2--2--2------------|------------------------|
--4----4---------------|--2--2--2------------|------------------------|
--5----5------------1--|--------3------------|------------------------|
-----------------2-----|--4------------------|------------------------|
--------------3--------|---------------------|--0----0----0--0--0--0--|


    E  E  E  E  E  E  E  E     E  E  E  E  E  E  E  E   
|------0-----5-----1-----3--|-----0-----5--1-----0-----|
|---1-----1-----------1-----|--1-----1--------1-----3--|
|*-----------------2--------|--------------2-----------|
|*--2-----2-----3-----3-----|--2-----2-----3-----3-----|
|---------3-----3-----3-----|--------3-----3-----3-----|
|---------------------------|--------------------------|


  E  E  Q    Q    E  E     Q    E  E  Q    E  E     E  E  E  E  Q    E  E   
--0-----7----5----------|------------------------|--------0----------------|
-----4------------------|------------------------|--0-----------4----------|
------------------------|------------------------|-----2-------------------|
--2---------------3--3--|--2----2--2--3----3--3--|--2-----2--2--3----3--3--|
--3-----3----3----3--3--|--3----3--3--3----3--3--|--3-----3--3--3----3--3--|
------------------------|------------------------|-------------------------|


  Q    E  E  Q    E  E     E  E  Q    E  E  Q       E  E  Q    E  E  E  E   
------------------------|--0-----7----0-----7----|--0-----8----5-----------|
--1----1--1--1----1--1--|-----4----------4-------|-----4-------3--1--0--1--|
------------------------|------------------------|-------------------------|
--2----2--2--3----3--3--|--2----------3----------|--4----------3-----------|
------------------------|--3----------3----------|--3----------3-----------|
------------------------|------------------------|-------------------------|


  E  E  E  E  E  E  E  E     E  E  E  E  E  E  E  E   
--------0--1--0-----------|--------0--2--0-----------|
-----1-----------1-----1--|-----1-----------1-----1--|
--2-----------------2-----|--2-----------------2-----|
--2-----------3-----------|--4-----------3-----------|
--3-----------3-----------|--3-----------3-----------|
--------------------------|--------------------------|


  E  E  E  E  E  E  E  E     E  E  E  E  E  E  E  E   
--------0--1--0-----------|--------0--2--0-----------|
-----1-----------1-----1--|-----1-----------1-----1--|
--2-----------------2-----|--2-----------------2-----|
--2-----------3-----------|--4-----------3-----------|
--3-----------3-----------|--3-----------3-----------|
--------------------------|--------------------------|


   E   E   E   E   E   E   E   E      E   E  E  E  E  E  E  E   
----------12--13--12--------------|----------0--1--0-----------|
------13--------------13--10--13--|--10---------------1--0--1--|
--14------------------------------|------10--------------------|
----------------------------------|----------------------------|
---0-----------0---0--------------|---0---------0--0-----------|
----------------------------------|----------------------------|


  Q    E  E  E  E  Q       E  E  E  E  Q    E  E     Q    E  E  Q    E  E   
--0----7-----5--3--1----|--0--1--3-----1----0-----|--0---------------------|
------------------------|-----------3----------3--|-------0--1--3----1--0--|
------------------------|-------------------------|------------------------|
--2-------2--2----------|--3--------3--3----------|--2-------2--2----------|
--0-------0--0----------|--1--------1--1----------|--0-------0--0----------|
------------------------|-------------------------|------------------------|


  E  E  E  E  Q    Q       Q    E  E  E  E  Q       Q    E  S. T E  E  E  E   
------------------------|-------------3--2--0----|--0----0-------------------|
--1--0--1---------------|------------------------|--0----0-----4-3--1--3--4--|
-----------2-------0----|--2----2----------------|--2----2-------------------|
--------------3---------|--2----2--2-------------|--2----2--2----------------|
--3--------3--3---------|--0----0--0-------------|--0----0--0----------------|
--1--------1--1---------|------------------------|---------------------------|


  Q    E  E  E  E  E  E     E  E  E  E  S S S S  S S S  S  
--0----0-----8--4--5--8--|--------------8-----7-----------|
--1----1-----------------|--3--3--3-------8-9---10--------|
--2----2-----------------|--2--2--2----------------8-7----|
--2----2--2--------------|--2-----2--2-----------------10-|
--0----0--0--------------|--0-----0--0--------------------|
-------------------------|--------------------------------|


  Q    E  E  E  E  Q       E  E  E  E  Q    E  E     Q    E  E  Q    E  E   
--0----7-----5--3--1----|--0--1--3-----1----0-----|--0---------------------|
------------------------|-----------3----------3--|-------0--1--3----1--0--|
------------------------|-------------------------|------------------------|
--2-------2--2----------|--3--------3--3----------|--2-------2--2----------|
--0-------0--0----------|--1--------1--1----------|--0-------0--0----------|
------------------------|-------------------------|------------------------|


  E  E  E  E  Q    Q       Q    E  E  Q    E  E     Q    E  E  Q    E  E   
------------------------|------------------------|------------------------|
--1-----1---------------|------------------------|------------------------|
-----3-----1-------0----|--2----2----------------|--4----4----------------|
--------------3---------|--2----2--2--2----2--2--|--4----4--4--4----4--4--|
--3--------3--3---------|--3----3--0--0----0--0--|--5----5--0--0----0--0--|
--1--------1--1---------|------------------------|------------------------|


  Q    E  E  Q    E  E     E  E  E  E  Q    E  E     Q    E  E  E  E  E  E   
------------------------|-------------------------|----------L-----------L--|
--1----1----------------|--3--3--3----------------|-------1--L-----2--2--L--|
--0----0----------------|--2--2--2----------------|-------1--L-----1--1--L--|
--2----2--2--2----2--2--|--4--4--4--4--4----4--4--|-------3--------3--3-----|
--0----0--0--0----0--0--|--0-----0--0--0----0--0--|-------------------------|
------------------------|-------------------------|--1----------------------|


  E  E  E  E  E  E  E  E     Q    E  E  E  E  E  E     E  E  E  E  Q    Q     
--------------------------|-------------------------|------------------------|
-----1--1--------0-----2--|-------3--------3--3-----|-----3--3-----3----2----|
-----1--1--------1-----1--|-------4--------4--4-----|-----4--4-----4----4----|
-----3--3--------2-----2--|-------4--------5--5-----|-----4--4-----4----3----|
--------------------1-----|--2-------0-----------0--|--2--------4--5----4----|
--1--------3--4-----------|-------------3-----------|------------------------|

(
  E  E  E  S. T E  E  E  S. T    E  E  E  E  E  E  E  E   
-----3--3--3--6-4--3--3--3--6-|--4--3--6--4--3--4--3-----|
------------------------------|-----------------------6--|
------------------------------|--------------------------|
------------------------------|--------------------------|
--3-----3-------3-----3-------|--3-----3-----3-----3-----|
-----------3-------------3----|-----------3-----------3--|


  E  E  E  S. T E  E  E  S. T    E  E  E  E  E  E  E  E   
-----3--3--3--6-4--3--3--3--6-|--4--3--6--4--3--4--3-----|
------------------------------|-----------------------4--|
------------------------------|--------------------------|
------------------------------|--------------------------|
--3-----3-------3-----3-------|--3-----3-----3-----3-----|
-----------3-------------3----|-----------3-----------3--|


  E  E  E  S. T E  E  E  S. T    E  E  E  E  E  E  E  E   
-----5--5--5--8-6--5--5--5--8-|--6--5--8--6--5--6--5--3--|
------------------------------|--------------------------|
------------------------------|--------------------------|
--0-----0-------0-----0-------|--0-----0-----0-----0-----|
-----------0-------------0----|-----------0-----------0--|
------------------------------|--------------------------|


  E  E  E  S. T E  E  E  S. T    E  E  E  E  E  E  E  E     S  S  S  S  E   E   
-----5--5--5--8-6--5--5--5--8-|--6--5--8--6--5--6--5-----|-------------14--13--|
------------------------------|-----------------------6--|----------11---------|
------------------------------|--------------------------|--8-10-11------------|
--0-----0-------0-----0-------|--0-----0-----0-----0-----|---------------------|
-----------0-------------0----|-----------0-----------0--|---------------------|
------------------------------|--------------------------|---------------------|


   E  E   E   E   E  E   E   E      E  E  E  E  E  E  E  E   
--12-----12--13--12-----12--13--|--12--8--5--1--0-----------|
--------------------------------|------------------1--------|
--------------------------------|---------------------2-----|
--------------------------------|------------------------3--|
------0--------------0----------|---0-----------------------|
---0--------------0-------------|---0-----1-----2-----3-----|


  E  E  E  E  H           Q    Q    E  E  E  E       Q    E  E  Q    E  E   
-----------------------|-------------------------||------------------------|
-----------------------|-------------------------||--3----3----------------|
-----------------------|------------------------*||--2----2----------------|
--2--------------------|------------------------*||------------------------|
-----3--0--------------|-------------------------||--0----0--0--0----0--0--|
--4--------1--0--------|--0----0----0--0--0--0---||------------------------|


  Q    E  E  Q    E  E     Q    E  E  Q    E  E     E  E  E  E  Q    E  E   
--0----0----------------|--1----1----------------|--3--3--3----------------|
------------------------|------------------------|--3--3--3----------------|
--2----2----------------|--2----2----------------|-------------------------|
------------------------|------------------------|-------------------------|
--0----0--0--0----0--0--|--0----0--0--0----0--0--|--0-----0--0--0----0--0--|
------------------------|------------------------|-------------------------|


  W                  
--0----------------||
--3----------------||
--2----------------||
--0----------------||
-------------------||
-------------------||




Duration Legend
---------------
W - whole
H - half
Q - quarter
E - 8th
S - 16th
T - 32nd
X - 64th
. - note dotted
|-n-|  - n-tuplets


Tablature Legend
----------------
L - tied note
x - dead note
g - grace note
(n) - ghost note
> - accentuded note
NH - natural harmonic
AH - artificial harmonic
TH - tapped harmonic
SH - semi harmonic
PH - pitch harmonic
h - hammer on
p - pull off
b - bend
br - bendRelease
pb - preBend
pbr - preBendRelease
brb - bendReleaseBend
\n/ - tremolo bar dip
\n - tremolo bar dive
-/n - tremolo bar Release up
/n\ - tremolo bar inverted dip
/n - tremolo bar return
-\n - tremolo bar Release down
S - shift slide
s - legato slide
/ -  slide into from below or out of upwards
\ -  slide into from above or out of downwards
~ - vibrato
W - wide vibrato
tr - trill
TP - tremolo picking
T - tapping
S - slap
P - pop
< - fade in
^ - brush up
v - brush down
Login or Register to remove this ad.

5 comments on Fithos Lusec Wecos Vinosec

Great tab!

4

I really like this tune, thanks for tabbing it out, and with such great polyphonic quality as well! I do have a question though: is this exactly the way the original score sounds? It seemed to sound really happy in places where I don't remember it sounding that way. That could be me though. Also, there are some very awkward fingerings, many of which I found could be easily fixed by playing the notes higher up (a lot of the stuff at the 3rd fret can easily be moved to the 8th fret for much easier fingering, and also there are some instances where you have notes at the 7th fret directly following notes at the second fret, which could easily be moved such that all the notes are at the 7th fret). Anyway, thanks again!

i tried to create the sounds

i tried to create the sounds of the original score, but i'm not perfect and even this tab is not perfectXD For the fingerings, i always post tab that i can play almost perfectly so i can guarantee you that with some practice this is playable. You are absolutely right about the 2nd fret notes that can be put to the 7th fret but i always tried to put as much as i can notes on first/second position because i know that for beginner it's easier to play there. Thanks for the constructive criticism and hints :)

nobuo uematsu

4

Also just thought I would point out that you have misspelled Uematsu's name. You transposed the 'u' and 'e'.

I fixed it on the site

I fixed it on the site version, but they'll have to submit an edit with a new ZIP file and such if they want it fixed on the download version.

i've submitted the new zip

i've submitted the new zip file in the topic of this tab ;)