Ads

Fisherman's Horizon (Final Fantasy VIII) Guitar Tab

Submitted: Apr 23, 2014 by Lemoncobbler (Last updated: Apr 24, 2014)

4.833335
Average: 4.8 (6 votes)
Download | Listen
Game: Final Fantasy VIII
Composer(s): Nobuo Uematsu
Style: Arrangement, Fingerstyle
Series: Final Fantasy

AutoScroll: Slow | Medium | Fast
Final Fantasy VIII
Composed by Nobou Uematsu
Arranged by Lemoncobbler


                                      Fisherman's Horizon                                       


Track 1 (Capo 1)
     Q    Q    Q    Q       Q    Q    Q    Q       H        Q    Q       H        H         
E||----------------------|----------------------|---------------------|--------------------|
B||-----------------3----|--2----3----0----2----|-----------0---------|--------------------|
G||------------2---------|--2---------0---------|--2-------------1----|--2-----------------|
D||-------4----0---------|------------0---------|--4--------4---------|--0--------2--------|
A||-------0--------------|--0-------------------|-----------2---------|-----------3--------|
D||--0-------------------|----------------------|--0------------------|--0-----------------|


  Q    Q    Q    Q       H        Q    Q       Q    Q    Q    Q       Q    Q    Q    Q     
------------0---------|---------------------|----------------------|----------------------|
--3---------2----2----|--3--------2---------|--3-------------------|----------------------|
----------------------|-----------2----0----|----------------------|----------------------|
--4-------------------|--4--------2---------|--4--------------0----|--2-------------------|
-------0--------------|---------------------|------------0---------|-------4--------------|
--0-------------------|--0------------------|-------0--------------|------------5----2----|


  H        Q    Q       W                   Q    Q    Q    Q       Q    Q    Q    Q     
---------------------|-------------------|-----------------0----|--2-------------------|
--3--------2----3----|--3----------------|-------3----3---------|------------3---------|
-----------2----0----|--2----------------|------------2---------|-------4----2----2----|
--4--------0---------|--4----------------|-----------------4----|----------------------|
---------------------|-------------------|-------0--------------|--3-------------------|
--0------------------|--0----------------|--0-------------------|----------------------|


  Q    Q    Q    Q       Q    Q    Q    Q       Q    Q    Q    Q       H        Q    Q     
------------0---------|----------------------|-----------------0----|--2-------------2----|
-------3---------3----|--3-------------------|-------3----3---------|-----------3---------|
--3-------------------|----------------------|-----------------0----|--2--------6---------|
------------0---------|------------2---------|------------4---------|--0------------------|
----------------------|-------3---------1----|-------0--------------|--2------------------|
--5-------------------|--2-------------------|--0-------------------|---------------------|


  Q    Q    Q    Q       Q    Q    Q    Q       H        H           Q    Q    Q    Q     
--5-------------------|----------------------|--------------------|-----------------0----|
------------2---------|--0-------------------|--0-----------------|------------0---------|
--2-------------------|------------2----2----|-----------2--------|-------0--------------|
-------4---------4----|-------4---------4----|--0--------2--------|--0-------------------|
----------------------|----------------------|--------------------|--3-------------------|
--4-------------------|----------------------|--5--------2--------|----------------------|


  ^                                                                   ^                   
  H        Q    Q       Q    Q    Q    Q       Q    Q    Q    Q       H        Q    Q     
--2-------------2----|--0-------------------|-----------------0----|--2------------------|
--3--------3---------|-------3--------------|-------3----3---------|--2--------3----0----|
--4------------------|------------4---------|-----------------0----|--2------------------|
--4------------------|--5-------------------|------------0---------|--2------------------|
-----------0---------|-----------------0----|-------2--------------|--4--------2---------|
--2------------------|----------------------|--2-------------------|---------------------|


  Q    Q    Q    Q       Q    Q    Q    Q       Q    Q    H           W                 
----------------------|----------------------|---------------------|-------------------|
--3-------------------|----------------------|------------3--------|--L----------------|
-----------------2----|--4----2----0---------|--2------------------|-------------------|
------------0---------|-----------------0----|-------3-------------|-------------------|
-------0--------------|--3-------------------|--1------------------|-------------------|
--0-------------------|----------------------|---------------------|-------------------|


  Q    Q    Q    Q       Q    Q    Q    Q       Q    Q    Q    Q       Q    Q    Q    Q     
-----------------0----|--2-------------------|------------0---------|----------------------|
-------3----3---------|------------3---------|-------3---------3----|--3-------------------|
------------2---------|-------4----2----2----|--3-------------------|----------------------|
-----------------4----|----------------------|------------0---------|------------2---------|
-------0--------------|--3-------------------|----------------------|-------3---------1----|
--0-------------------|----------------------|--5-------------------|--2-------------------|


  Q    Q    Q    Q       H        H           Q    Q    Q    Q       Q    Q    Q    Q     
-----------------0----|--2-----------------|--5-------------------|----------------------|
-------3----3---------|-----------3--------|------------2---------|--0-------------------|
-----------------0----|--2--------6--------|--2-------------------|------------2----2----|
------------4---------|--0-----------------|-------4---------4----|-------4---------4----|
-------0--------------|--2-----------------|----------------------|----------------------|
--0-------------------|--------------------|--4-------------------|----------------------|


                                              ^                                          
  H        H           Q    Q    Q    Q       H        Q    Q       Q    Q    Q    Q     
--------------------|-----------------0----|--2-------------2----|--0-------------------|
--0-----------------|------------0---------|--3--------3---------|-------3--------------|
-----------2--------|-------0--------------|--4------------------|------------4---------|
--0--------2--------|--0-------------------|--4------------------|--5-------------------|
--------------------|--3-------------------|-----------0---------|-----------------0----|
--5--------2--------|----------------------|--2------------------|----------------------|


  Q    Q    Q    Q       Q    Q    Q    Q       Q    Q    Q    Q       Q    Q    Q    Q     
-----------------0----|--2-------------------|----------------------|----------------------|
-------3----3---------|------------3----0----|--3--------------3----|--2----3--------------|
-----------------0----|----------------------|------------4---------|------------4---------|
------------0---------|-------0--------------|-------4--------------|-----------------4----|
-------2--------------|--1-------------------|--2-------------------|----------------------|
--2-------------------|----------------------|----------------------|----------------------|


                                             ^                                           
  Q    Q    Q    Q       W                   H         Q    Q       Q    Q    Q    Q     
-----------------0----|--8----------------|--2--------10----9----|--5--------------7----|
------------3---------|-------------------|--3-------------------|----------------------|
-------0--------------|-------------------|--2-------------------|----------------------|
----------------------|-------------------|--4-------------------|------------2---------|
--3-------------------|-------------------|----------------------|-------2--------------|
----------------------|-------------------|--0-------------------|--2-------------------|


  Q    Q    Q    Q       Q    Q    Q    Q       Q    Q    Q    Q       Q    Q    Q    Q     
--5-------------------|----------------------|--2---------7----5----|--2--------------4----|
----------------------|----------------------|----------------------|------------0---------|
----------------------|-----------------0----|------------6---------|-------1---------1----|
------------2---------|------------2---------|-------4--------------|----------------------|
-------4---------4----|-------3--------------|--2-------------------|--4-------------------|
--4-------------------|--5-------------------|----------------------|----------------------|


                                                                     ^                    
  Q    Q    Q    Q       H.           Q       Q    Q    Q    Q       H         Q    Q     
--2-------------------|---------------0----|-----------------2----|--9-------------------|
----------------------|--------------------|--3----2----3---------|--7--------10----7----|
----------------------|---------------3----|--2-------------------|--7-------------------|
----------------------|--------------------|----------------------|--9-------------------|
-------2----4----2----|--1-----------------|--0-------------------|----------------------|
--4-------------------|--------------------|--4-------------------|----------------------|


  ^                                                                                        
  Q    Q    Q    Q        H        H           Q    Q    Q    Q       Q    Q    Q    Q     
-----------------7----|--14--------9--------|----------------------|------------0---------|
--8----7----8---------|--12-----------------|--3-------------------|----------------------|
--7-------------------|---------------------|----------------------|--0-------------------|
--9-------------------|---------------------|------------0----2----|-------2----0---------|
----------------------|---------------------|-------1--------------|-----------------1----|
----------------------|---------------------|--3-------------------|----------------------|


                         ^                                                                
  Q    Q    Q    Q       H        H           Q    Q    Q    Q       Q    Q    Q    Q     
-----------------0----|--3--------0--------|----------------------|------------2----5----|
--3---------1---------|--1-----------------|--3-------------------|-------3--------------|
-------0--------------|--0-----------------|----------------------|--2-------------------|
----------------------|--------------------|------------0----4----|----------------------|
--3-------------------|--3-----------------|-------0--------------|----------------------|
----------------------|--------------------|--0-------------------|----------------------|


   ^                  
   W                  
--10----------------||
---7----------------||
---7----------------||
---7----------------||
--------------------||
--------------------||




Duration Legend
---------------
W - whole
H - half
Q - quarter
E - 8th
S - 16th
T - 32nd
X - 64th
. - note dotted
|-n-|  - n-tuplets


Tablature Legend
----------------
L - tied note
x - dead note
g - grace note
(n) - ghost note
> - accentuded note
NH - natural harmonic
AH - artificial harmonic
TH - tapped harmonic
SH - semi harmonic
PH - pitch harmonic
h - hammer on
p - pull off
b - bend
br - bendRelease
pb - preBend
pbr - preBendRelease
brb - bendReleaseBend
\n/ - tremolo bar dip
\n - tremolo bar dive
-/n - tremolo bar Release up
/n\ - tremolo bar inverted dip
/n - tremolo bar return
-\n - tremolo bar Release down
S - shift slide
s - legato slide
/ -  slide into from below or out of upwards
\ -  slide into from above or out of downwards
~ - vibrato
W - wide vibrato
tr - trill
TP - tremolo picking
T - tapping
S - slap
P - pop
< - fade in
^ - brush up
v - brush down
Login or Register to remove this ad.

6 comments on Fisherman's Horizon

Amazing version!!! Request

5

Amazing version!!!

Request though, reformat it a little so I don't have to scroll so much!

woah what the fuckUpdated

woah what the fuck
i'll update the file and send it to one of the mods

Nice shot Lemon ! There are 2

4

Nice shot Lemon !
There are 2 little things that bug me though.
First, your arrangement is a liiiiiiittle too fast (of a few BPM, but still). The original song is not slow either, but playing it that "fast" kinda kills the mood in my opinion (well, mine is maybe a little too slow, so, yeah, whatever, play it the want you like it the most :P).
The second thing is about the melody. You nailed it right, there's no problem about it, but around measures 18-20 (and 36-38), WHY DA KEY CHANGE ? :(
It doesn't sound bad, but once again, in my opinion, if you decide to get a higher or lower key in the middle of an arrangement, you should just stick with it, at least for a while, until the next part or movement of the song begins.
It would have sounded better that way, I think :

|-----------5----|--7--5----|-----------0----|
|--0-------------|--0-------|--3-----0-------|
|--------2-------|-----2----|-----0----------|
|-----4-----4----|-----2----|--2-------------|
|----------------|----------|--3-------------|
|----------------|--5--2----|----------------|

Plus, these are easy chords, so... Yeah. :P

interesting take on it! I was

interesting take on it!
I was having a difficult time playing it comfortably any other way than the way I had it listed. When I get my guitar back next week i'll give your version a shot and might revise the original.
Thanks for the input :D

so! I played that tid bit in

so! I played that tid bit in place of the key change, it sounds much better! pretty easy to play too, i'll go back and edit the tab at some point. Thanks dude!

You're welcome Lemon. You did

4

You're welcome Lemon. You did a great job on this one even if I'm bitching about minor details.
Well, french dude here. We loooooove bitching all day long on pretty much everything. <3
About my own arrangement of this song, there are 2 versions of it on the same page. They're basically the same, but one is on Drop D and the other one on stantard tuning. Be careful not to mix the two while frenetically scrolling down. (Lulz)