Ads

Eyes On Me (Final Fantasy VIII) Guitar Tab

Submitted: May 27, 2019 by paranoid (Last updated: Jun 23, 2019)

0
Download | No audio :(
Game: Final Fantasy VIII
Composer(s): Nobuo Uematsu
Style: Arrangement, Fingerstyle
Series: Final Fantasy

Click here for a video example.

AutoScroll: Slow | Medium | Fast
The arranger is Steven Law. Please check the videos he has performing this.
I also included the related timestamps for each part.

Classical Guitar: https://www.youtube.com/watch?v=PQuGDFJHw20
Acoustic Guitar: https://www.youtube.com/watch?v=l_enWPeIx-w

This is not the official tab and as far as I know there isn't one available so
I made one myself. This is my first tab so there's some rough areas for the
timing and some chord voicings I'm skeptical about but overall I think it
sounds very similar to the original.

Tuning is standard E (eBGDAE).

Intro
=====

(0:00)

   H L            E  E  E     Q       H         E  E
|--4--------------2--7--0--|--------------------------|
|--3-----------------------|--4-------5------------0--|
|--------------------------|--------------------1-----|
|--0-----------------------|----------6---------------|
|--------------------------|--4-----------------------|
|--------------------------|--------------------------|


   E   E   H         Q        H          H               H L                  E
|--------------------------|--2----------0------------|--0-----------------------||
|--------------------3-----|--3-----------------------|--3-----------------------||
|--2---1---2---------------|--2-----------------------|--1-----------------------||
|--0-----------------------|--0-----------------------|-----------------------2--||
|--2-----------------------|--------------------------|--------------------------||
|--------------------------|--------------------------|--0-----------------------||



Section 1
=========

(0:16, 1:00)

   Q     Q     Q     E  E     E  E  E  H L
|--------------------------|--------------------------|
|--------0-----2-----5--2--|--------------------------|
|--2-----------------------|-----------2--------------|
|--------------------------|--------4-----------------|
|--0-----------------------|-----4--------------------|
|--------------------------|--2-----------------------|


   E  E  H           E  E     E  Q     H           E
|--------------------------|--------------------------|
|--0--2--------------------|-----0--------------------|
|--2-----2--------------2--|-----2-----1--------------|
|--0-----------------4-----|-----------------------2--|
|--------------------------|--------------------------|
|--------------------------|--0-----------------------|


   Q     Q     Q     E  E     E  E  E  Q L      Q
|--------------------0--4--|--------------------------|
|--------0-----2-----------|-----------5--------------|
|--2-----------------------|--------6-----------------|
|--------------------------|-----6--------------------|
|--0-----------------------|--4-----------------4-----|
|--------------------------|--------------------------|


   E  E  Q        E  E  E     E  E  E  E  Q L      E
|--4--5--2-----------2--0--|-----------------------0--||
|--3--------------3--------|-----------3--0-----------||
|--2-----------------------|--------2-----1-----------||
|--0-----------------------|-----4--------0-----------||
|--------------------------|--------------------------||
|--------------------------|--0-----------0-----------||



Section 2
=========

(0:38, 1:22, 3:20)

   E  E  E  E  Q L      E     E  E  E  Q L      E  E
|--5--------5--4-----------|-----------------------0--||
|-----------------------7--|--7-----5-----------2-----||
|--------2-----------------|--------------------------||
|-----4--------------------|-----------6--------------||
|--------------------------|-----4--------------------||
|--2-----------------------|--------------------------||

Ending 1
--------

(0:43)

   E  E  E  E  Q     Q        E  E  H L            E     E  E  E  E  Q    E   E   
|--2--------2--0-----------|--------------------------|--------------------------|
|--------3-----------3-----|--3--0--2--------------2--|--2-----0--2--3----2---0--|
|-----2--------------------|--2-----------------------|--------------------------|
|--0-----------------------|--------------------------|-----0--------------------|
|--------------------------|--0-----------------------|--------------------------|
|--------------------------|--------------------------|--3-----------------------|


   E  E        Q     E  E     H L            E  E  E     Q     E  H           E
|--------------------------|-----------------------0--|--------------------------||
|--0-----------------------|-----------------0--2-----|--------------------------||
|-----2-----------------2--|--2-----------------------|--2-----2-----------------||
|--------------------4-----|--0-----------------------|--2--------3-----------2--||
|--------------------------|--------------------------|--------------------------||
|--2-----------2-----------|--------------------------|--1-----------------------||

Ending 2
--------

(1:27, 3:25)

  E  E  E  E  E  E  E  E     E  Q        Q        E     E  E  E  Q     E  E  E
--2--------2--0-----------|--------------------------|--------------------------|
--------3--------3-----2--|-----0-L------------------|-----------------0--2--5--|
-----2--------------2-----|--------------1-L---------|--2-----4-----------------|
--0-----------------------|--------------2-L------2--|-----2-----2--------------|
--------------------------|--------------------------|--4-----------------------|
--------------------------|--0-----------------------|--------------------------|

                                                                          
  E  E  E  Q     E  E  E  |  E  E  E  E  E  E  E  E  |  E  E  E  Q     E  E  E  
--------------------------|--------------------------|--------0-----------------|
-----------------5--3-----|--2-----------------0-----|--------2--------0--------|
--------2--------------2--|--------2-----------1-----|--2--------2--------2--1--|
-----4-----4--------------|-----0-----0-----0-----0--|--2--2--------------------|
--2-----------------------|--0-----------------------|--0-----------------------|
--------------------------|--------------0-----------|--------------------------|


  H            Q    E  E
-----------------------0--||
--------------------2--2--||
--0------------2----2-----||
--2-----------------------||
---------------0----------||
--0-----------------------||



Section 3
---------

(1:46, 3:44)

   E  E  E  E  E  E  E  E     E  E  E  E  Q    E   E   
|--4--------2--2-----------|--------------2----4---5--|
|--------3--3--3-----3-----|--------3-----------------|
|-----2-----------2-----2--|-----2-----2--2----4---6--|
|--0-----------------------|--0-----------0-----------|
|--------------------------|--------------------------|
|--------------------------|--------------------------|


   E  E  E  E  E  E  E  E     E  E  E  Q     E  E  E
|--2-----------------------|--------------------------|
|--2--------5--5-----------|-----------------2--2--3--|
|--------2--2--2-----2-----|--------2--------2--2--4--|
|-----2-----------2-----2--|-----2-----2--------------|
|--0-----------------------|--0-----------------------|
|--------------------------|--------------------------|


   E  E  E  E  E  E  E  E     E  E  E  E  Q     E  E
|--0-----------------------|--------------------0--2--|
|-----------3--3-----------|--------------3-----------|
|--------0-----------0-----|--------1-----------0-----|
|-----0-----------0-----0--|-----0-----0--4-----------|
|--------------------------|--------------------------|
|--3-----------------------|--0-----------0-----------|


   E  E  E  Q     E  E  E     E  E  E  E  Q     E  E   
|--2-----0--0--------------|-----------------------0--|
|--2-----2--2--------------|--------------------2--2--|
|--------------------2-----|--------0--2--2-----2-----|
|-----2-----------2-----2--|--------0-----------------|
|--0-----------------------|-----2--------0-----------|
|--------------------------|--0-----------------------|



Section 4
=========

(2:07, 4:04)

   E  E  E  E  E  E  E  E     E  E  E  E  Q     E  E   
|--4--------2--2-----------|--------------2-----4--5--|
|--------3--3--3-----3-----|--------3-----------------|
|-----2-----------2-----2--|-----2-----2--2-----4--6--|
|--0-----------------------|--0-----------0-----------|
|--------------------------|--------------------------|
|--------------------------|--------------------------|


   E  E  E  Q     E  E  E     Q     E  E  E  Q
|--4-----------------------|--2-----------------------|
|--------5-----------5-----|--2--------------2-----5--|
|-----------------4-----4--|--3-----------3-----------|
|-----6-----6--------------|-----------4--------------|
|--4-----------------------|--------4-----------------|
|--------------------------|--2-----------------------|


   E  E  E  E  Q     E  E     E  E  E  E  E  E  E  E
|--------5-----------------|--------------------------|
|--5--3-----3--3-----------|--2--------2-----0--------|
|-----------0--0-----2/-4--|--------2--------1--2--1--|
|--------------------------|-----4-----------2--------|
|--2-----------------------|--------------------------|
|--------------------------|--0-----------0-----------|



Section 5
=========

(2:24)

   H L           E  E  E      Q   E  E  E  E  Q    E
|-------------------2------|------------------5-------||
|--0-----------------------|------------------2-------||
|--2-------------2-----2---|--2---------4--2----------||
|--0-----------------------|--2------2-------------2--||
|--------------------------|--0-----------------------||
|--------------------------|--------------------------||



Section 6
=========

(2:30)

   Q     Q     H              E  E  E  E  Q L  S S S
|--------------2-----------|--4--2--0--0--------------|
|--2-----5-----3-----------|--------------2------2----|
|--------------------------|-------------------4---4--|
|--------------0-----------|--------------------------|
|--------------------------|-----------4--------------|
|--------------------------|--------------------------|


   H           E  E  E  E     Q     E  E    E  E  Q    
|--------------------------|--------------------------|
|-----------------------2--|--0----------------2--2---|
|--2-----------------2-----|--------2-----------------|
|-----------------4--------|-----------4--------------|
|--------------2-----------|--4-------------2---------|
|--------------------------|--------------------------|


   E  E  E  E  E  Q L         E  E  E  E  E  E  Q
|--------2-----------------|--9--7--5--7--------------|
|--2--5--3-----3-----------|-----------------5--------|
|-----------2-----2--------|--------------6-----6-----|
|--------0-----------------|--------------------------|
|--------------------------|-----------4--------------|
|--------------------------|--------------------------|


   E  E  E  E  E  Q     E     E  E  Q     Q     E  E  |  E  Q L      Q L      E
|--------0-----------------|--------------------------|--------------------------||
|--3--2-----------0-----3--|--2-----------0-----------|--------------0-----------||
|--2-----------2-----------|-----2--2-----------------|-----1--------1-----------||
|--0--------0--------------|--------4-----------------|-----0--------0--------2--||
|--------2-----------------|--------0-----------4--0--|--2-----------------------||
|--------------------------|--------------------------|-----0--------1-----------||



Section 7
=========

(2:57)

  E  E  E  E  E  E  E  E     E  H L
--------------------0-----|--------------------------|
--------------2--------2L-|--------------------------|
--2-----4-----------------|-----1--------------------|
-----4-----4-----4--------|--------------------------|
--------------------------|-----4--------------------|
--2-----------------------|--0-----------------------|


  E  E  H           E  E     H          H  
--------------------------|--------------------------|
--0--2--------------------|--0-----------------------|
--2-----2--------------2--|--2----------1------------|
--0-----------------4-----|--0----------0------------|
--------------------------|-------------2------------|
--------------------------|--0----------0------------|


  E  E  E  E  Q     E  E     E  E  E  Q L         E
--------------------0--4--|-----------------------4--|
--------0-----2-----2--5--|--------------------------|
--2-----------2-----------|--------6-----------------|
-----2-----2--------------|-----6-----6--------------|
--0-----------------------|--4-----------------------|
--------------------------|--------------------------|


  E  E  E  Q     E  E  E     E  E  E  E  Q L      E    
--4--5--2L-------0--2--0--|-----------------------0--||
--3-----------------------|-----------3--0-----------||
--2-----------------------|--------2-----1-----------||
--0--------0--------------|-----4--------0-----------||
--------------------------|--------------------------||
--------------------------|--0-----------0-----------||



- Repeat section 2 with ending 2, section 3, section 4



Outro
=====

(4:21)

   H          H               H           E  E  E  E 
|--------------------------|-----------------------0--|
|--0-----------------------|-----------------2--0-----|
|--2-----------------------|--2-----------------------|
|--0----------0------------|--2-----------2-----------|
|--------------------------|--0-----------0-----------|
|--------------------------|--------------------------|


   E  E  E  Q     E  E  E     E  E  E  Q     E  E  E 
|--5-----------------------|--5-----------------------|
|--------0-----------0-----|--------0-----------0-----|
|-----6-----6-----6-----6--|-----6-----6-----6-----6--|
|--------------------------|--------------------------|
|--0-----------------------|--0-----------------------|
|--------------------------|--------------------------|


   E  E  E  Q     E  E  E     W
|--5-----------------------|--5-----------------------||
|--------0-----------0-----|--0-----------------------||
|-----6-----6-----6-----6--|--6-----------------------||
|--------------------------|--------------------------||
|--0-----------------------|--0-----------------------||
|--------------------------|--------------------------||
Login or Register to remove this ad.