Ads

Blue Fields (Final Fantasy VIII) Guitar Tab

Submitted: Oct 08, 2016 by JordanVS

5
Average: 5 (9 votes)
Download | Listen
Game: Final Fantasy VIII
Composer(s): Nobuo Uematsu
Style: Arrangement, Fingerstyle
Series: Final Fantasy

AutoScroll: Slow | Medium | Fast
Blue Fields                                                   
Final Fantasy VIII
Piano Collections
Nobuo Uematsu & Shiro Hamaguchi
JordanVS

Based on the Piano Collections arrangement
*Capo on the 3rd fret
-Tempo : 80 ~ 6/8


										       *Segno	
     E  E  Q    E  E     E  S  S E  E  Q       E  E  Q    E  E     E  S  S E  E  Q       E  E  E  E  E  E   
E||-------------------|---------------------|-------------------|---------------------|--3-----------------|
B||--------1----------|----------0-----3----|--------1----------|----------0-----3----|-----------3--------|
G||--------0----------|-------------0-------|--------0----------|-------------0-------|--------0--L--------|
D||-----2-------------|-----0h-2-------4----|-----2-------------|-----0h-2-------4----|-----2--------------|
A||--0-------------2--|--0------------------|--0-------------2--|--0------------------|--0--------------2--|
E||-------------0-----|---------------------|-------------0-----|---------------------|--------------0-----|


  E  S  S E  E  E  E     E  E  E   E  E  E     E  S  S E  E  E  E     E  E  E  E  E  E   
-------------------0--|---------------------|----------------------|--0--3--2-----------|
--L-------0-----3-----|--3-----0h--1--------|--L-------0-----1--3--|-----------3--------|
-------------0--------|--------0---L--------|-------------0--------|--------0--L--------|
-----0h-2-------4-----|-----2---------------|-----0h-2-------4-----|-----2--------------|
--0-------------------|--0---------------2--|--0-------------------|--0--------------2--|
----------------------|---------------0-----|----------------------|--------------0-----|


  E  S  S E  E  E  E     E  E  E  E  E  E     E  E  E  E  E  E     E  E  E  E  E  E     E  S  S E  E  E  E   
----------------------|--0-----------------|--L-----------------|--3-----------------|-------------------0--|
--L-------0-----1--3--|--------1-----------|--------1--0--------|-----------3--------|--L-------0-----3-----|
-------------0--------|--------2--0--------|--------2--0--2--0--|--------0--L--------|-------------0--------|
-----0h-2-------4-----|-----2--2--0--------|-----2--3--0--------|-----2--------------|-----0h-2-------4-----|
--0-------------------|--0--------------2--|--0-----------------|--0--------------2--|--0-------------------|
----------------------|--------------0-----|--------------------|--------------0-----|----------------------|


  E  E  E   E  E  E     E  S  S E  E  E  E     E  E  E  E  E  E     E  S  S E  E  E  E     E  E  Q    E  E   
---------------------|----------------------|--------------------|----------------------|-------------------|
--3-----0h--1--------|--L-------0-----1--3--|--1--------0--------|--L-------0-----0-----|-------------------|
--------0------------|-------------0--------|--------0--L--------|-------------0-----0--|--2----------------|
-----2---------------|-----0h-2-------4-----|-----2--------------|-----0h-2-------3-----|-----0--2----0-----|
--0---------------2--|--0-------------------|--0--------------2--|--0-------------------|--0--0--2----0-----|
---------------0-----|----------------------|--------------0-----|----------------------|----------------0--|
					
					3/8             6/8
                                *Da Coda
  E  E  E  E     Q        H.               E  S  S S S    E  E  E  E  E  E     E  E  E  E  E  E   
-----------------0----|---L-------------|--------------|--3-----------------|-----------------0--|
----------------------|-----------------|--3--1p-0-----|-----------3--------|--L--------3--3-----|
-----0--2------0g2----|---L-------------|----------0---|--------0-----0-----|--------2-----2-----|
-----0--2--------0----|---L-------------|------------2-|-----2-----------2--|-----3-----------3--|
--0-------------------|-----------------|--------------|--0-----------------|--0-----------------|
-----------1h---------|--(0)------------|--------------|--------------------|--------------------|


  E  E  E  E  E  E     E  E  E  E  E  E     E  E  E  E  E  E     E  E  E  E  E  E   
--------------------|--------------------|--0--3--2-----------|-----------0--------|
--3-----0--1--------|--L--------3--1--3--|-----------3--------|--L--------3--1--3--|
--------2-----2-----|--------2-----2-----|--------0-----0-----|--------2-----2--4--|
-----4-----------4--|-----3-----------3--|-----2-----------2--|-----4--------------|
--0-----------------|--0-----------------|--0-----------------|--0-----------------|
--------------------|--------------------|--------------------|--------------------|


                                              ^                                             
  S S S S S S S S S S S S    E  E  E  E  S  S E     E  E  E  E  E  E     E  E  E  E  E  E   
--0-----------L-----------|----------------------|--3-----------------|-----------------0--|
--1-0-----0---------------|--------0-----0h-1-0--|-----------3--------|--L--------3--3-----|
------2-----2-0---2-0-----|-----------2-------0--|--------0-----0-----|--------2-----2-----|
--------2-------0-----0---|--2-----------2----0--|-----2-----------2--|-----3-----------3--|
--0---------------------2-|--0-------------------|--0-----------------|--0-----------------|
--------------------------|-----0--3--1-------0--|--------------------|--------------------|


  E  E  E  E  E  E     E  E  E  E  E  E     E  E  E  E  E  E     E  E  E  E  E  E     E  S S S S S S S S S S  
--------------------|--------------------|--------------------|-----------0--------|-----3-1-0-----0---0---0-|
--3-----0--1--------|--L--------3--1--3--|--1--------0--------|--------------0-----|-----------3-1---0-------|
--------2-----2-----|--------2-----2-----|--------0-----0-----|--------2--------0--|--2------------------2---|
-----4-----------4--|-----3-----------3--|-----2-----------2--|-----3--------------|---------3---2---0-------|
--0-----------------|--0-----------------|--0-----------------|--0-----------------|--0------------------3---|
--------------------|--------------------|--------------------|--------------------|-------------------------|


  Q    E  E  S  S S S    Q.     Q.         H.               Q    E  Q    E     Q    E  E  E  E   
----------------------|----------------|-----------------|------------------|--0----------------|
----------------------|----------------|-----------------|--1----0--1----3--|-------1-----------|
--0-------------------|--2-------------|---L-------------|----------2-------|--2----------2--0--|
-------2--3--2p-0---2-|--2-------------|---L-------------|--2-------0-------|--0-------0-----0--|
--2---------------3---|--0------0------|--(0)------------|--0---------------|----------3-----2--|
----------------------|----------------|-----------------|----------1-------|----------0--------|


  E  S S E  Q    E     E  S S S S E  S S S S    Q    E  Q    E     Q    E  E  E  E   
--------------------|------------------------|------------------|--0----3-----2-----|
--------------------|------------------------|--1----0--1----3--|-------3--------3--|
--2------2--0-------|-------2----------------|--2-------0-------|--2----------------|
--2----2---------3--|--2--2---0-2--------0-2-|--2-------0-------|--2----2--0--------|
-----0------2-------|--0----------0--2-3-----|------------------|-------------------|
--1---------3-------|------------------------|--1-------2-------|--3----------------|


  S S S S S S S S S S S S    S S S S S S S S S S S S    E  E  E  E  E  E     E  E  E  E  E  E   
--0-----------------------|----------------------3-1-|--5--------0-----5--|--3-----2-----0-----|
--0---0---0---0---3-1-0---|--0---0-------------1-3---|--5--------1--------|--3--------1-----3--|
----2-------2-------------|----2-----0-----1-2-------|--------2-----2-----|--4-----2-----2-----|
--------2-------0-------0-|--------2---3-2-----------|-----2-----------2--|-----0-----------0--|
--------------------------|--3-----------2-----------|--0-----------------|--0-----------------|
--0-----------------------|--------------------------|--------------------|--------------------|


  E  E  E  E  E  E     E  E  E  E  E  E     E  E  E  E  E  E     Q    E  E  E  E     E  E  E  E  E  E   
--0-----L--------0--|--------------------|--------------------|--0----------------|--------0-----------|
--1-----L--1--------|--3--L--L--3--------|--1-----0--1-----3--|--3----1--L--------|--------1--3--------|
--2-----2-----2-----|--2--L--2-----2-----|--------------0-----|--4----2--0--2--0--|--2-----2--4--------|
-----3-----------3--|--4--4--L--------4--|-----3-----2-----3--|--5-------0--------|-----2-----------0--|
--0-----------------|--0-----------------|--0-----0-----------|-------------------|--0-----------------|
--------------------|--------------------|--------------------|-------1--0--------|--------------0-----|


           ^                                                                                            
  E  E  E  S S S S S S    E  E  E  Q    E     E  E  E  E  E  E     E  E  E  Q    E     E  E  E  Q.      
-----------------0-1-3-|--5-------------5--|--3-----2-----0-----|--0-------------0--|------------------|
--------1--0-1-3-------|-----------5-------|-----------0-----3--|-----------1-------|--3---------------|
--------2--0-----L-----|-----------5-------|--------0-----------|-----------2-------|-----------2------|
-----2-----0-----L-----|--------7----------|-----0--------------|--------3----------|-----0--4---------|
--0--------------------|-----7-------------|--0-----------------|--0--3-------------|--0---------------|
-----------0-----------|--5----------------|--------------------|-------------------|------------------|


  Q    E  Q    E     Q    Q    E  E     E  E  Q    E  E     E  S  S E  E  Q       E  E  Q    E  E   
------------------|--0---------------|-------------------|---------------------|-------------------|
--1----0--1----3--|--1----1----------|--------1----------|----------0-----3----|--------1----------|
--2----0--2----4--|--2---------2--0--|--2-----0----------|-------------0-------|--------0----------|
--3----2--3----5--|--3---------------|-----2-------------|-----0h-2-------4----|-----2-------------|
----------5----7--|------------------|--0-------------2--|--0------------------|--0-------------2--|
------------------|------------------|-------------0-----|---------------------|-------------0-----|

         *D.S al Coda *Coda 
  E  S  S E  E  Q       E  S  S S S  S S S  S  S S    Q    E  Q.        H.             
---------------------|-----------------------------|----------5------|--L------------||
----------0-----3----|--3--1p-0--------------------|-----------------|---------------||
-------------0-------|----------0------------------|----------5------|--L------------||
-----0h-2-------4----|------------2p-0-------------|----------7------|--L------------||
--0------------------|-----------------2---------2-|--0--------------|---------------||
---------------------|-------------------3p-0h-3---|-------0---------|---------------||




Duration Legend
---------------
W - whole
H - half
Q - quarter
E - 8th
S - 16th
T - 32nd
X - 64th
. - note dotted
|-n-|  - n-tuplets


Tablature Legend
----------------
L - tied note
x - dead note
g - grace note
(n) - ghost note
h - hammer on
p - pull off
^ - brush up
v - brush down
Login or Register to remove this ad.

5 comments on Blue Fields

Very Lovely! (b^_^)b

5

Very Lovely! (b^_^)b

There's some real nice pieces

5

There's some real nice pieces in the piano collections (rikku's theme and besaid island are my faves), great job on this

This is beautiful and very

5

This is beautiful and very playable. Well done. I hope you don't mind I took the liberty of making a minor miiiinnoor change on measure 61-62. I like what you were going for but for me it's just one glaringly awkward measure in an otherwise very playable piece. I changed it to

    
------------------|--0---------------|
--1----0--1----3--|--1----1----------|
--2----0--2----4--|--2---------2--0--|
--3----2--0----5--|------------------|
------------------|------------------|
---------------0--|--1---------------|

I just wanted full disclosure in case I decide to record this. (I might, I love it!)

Favorited!

5

Favorited!

Wonderful! A very satisfying

5

Wonderful! A very satisfying piece to play.