Blue Fields (Final Fantasy VIII) Guitar Tab

Submitted: Apr 06, 2013 by Crabble

4
Average: 4 (3 votes)
Download | Listen
Game: Final Fantasy VIII
Composer(s): Nobuo Uematsu
Style: Transcription
Series: Final Fantasy

AutoScroll: Slow | Medium | Fast
Background
---6-6----------6-6-----------|
-------6------3---------------|
---------5--------------------|
------------------------------|
-3----------------------------|
------------------------------|
Melody:
-6------3------------3-6-5---------3-----|
---6--6---6-3-4--4-6-------6---4-6-------|
-----------------------------------------|
-----------------------------------------|
-----------------------------------------|
-----------------------------------------|

-------------------1-5-----3-6-10-8-6-5-4-3--|
-----------3-----3-----3-4-------------------|
-0-------0---2-3-----------------------------|
-----0-1-------------------------------------|
---3-----------------------------------------|
---------------------------------------------|

-6-----3-------------------------|-1-3-1-3-1----6-8-6-8-6----|
---6-6---6-3-4--4-6-4-3--3---1---|---------------------------|
---------------------------3-----|---------------------------|
---------------------------------|---------------------------|
---------------------------------|---------------------------|
---------------------------------|---------------------------|

-------1-3-----------------1-3-6-5---3-------|
-4-3-4-----4---------4-3-4---------6---------|
-------------5-3-5---------------------------|
---------------------------------------------|
---------------------------------------------|
---------------------------------------------|

-8---8-6-5----------------------------------------------------|
---8-------8-6-8---8--6--------6-8----------------------------|
-----------------8-------8-7-8------8-8--5---5----------------|
-------------------------------------------8------------------|
-----------------------------------------------Made-by-Gö-----|
--------------------------------------------------------------|
Login or Register to remove this ad.