Ads

You Can Hear The Cry Of The Planet (Quartet) (Final Fantasy VII) Bass/Guitar Tab

Submitted: Jun 07, 2010 by TheDoomOfAllFires

5
Average: 5 (1 vote)
Download | Listen
Game: Final Fantasy VII
Composer(s): Nobuo Uematsu
Style: 2 or more instruments, Arrangement, Fingerstyle
Series: Final Fantasy

AutoScroll: Slow | Medium | Fast
Title: You Can Hear The Cry Of The Planet (Quartet)
Artist: Nobuo Uematsu
Album: FF VII
Music: Nobuo Uematsu
Copyright: Nobuo Uematsu / Square-Enix
Tabber: TheDoomOfAllFires
Tempo = 84
Guitars = Standard Tuning
Bass = Drop D Tuning

Hope you like it ! ^^



Guitar 1 :


E |----------------------|----------------------|----------------------|
B |--------3-------------|--------3-------------|--------3-------------|
G |-----2-----3h-0--2----|-----2-----3h-0--2----|-----2-----3h-0--2----|
D |--0-------------------|--0-------------------|--0-------------------|
A |----------------------|----------------------|----------------------|
E |----------------------|----------------------|----------------------|


----------------------|----------------------|----------------------|
--------3-------------|--------3-------------|--------3-------------|
-----2-----3h-0--2----|-----2-----3h-0--2----|-----2-----3h-0--2----|
--0-------------------|--0-------------------|--0-------------------|
----------------------|----------------------|----------------------|
----------------------|----------------------|----------------------|


----------------------|----------------------|----------------------|
--------3-------------|--------3-------------|--------3-------------|
-----2-----3h-0--2----|-----2-----3h-0--2----|-----2-----3h-0--2----|
--0-------------------|--0-------------------|--0-------------------|
----------------------|----------------------|----------------------|
----------------------|----------------------|----------------------|


----------------------|----------------------|----------------------||
--------3-------------|--------3-------------|--------3-------------||
-----2-----3h-0--2----|-----2-----3h-0--2----|-----2-----3h-0--2----||
--0-------------------|--0-------------------|--0-------------------||
----------------------|----------------------|----------------------||
----------------------|----------------------|----------------------||


---------------------|----------------------|----------------------|
-------3-------------|--------3-------------|--------3-------------|
o---2-----3h-0--2----|-----2-----3h-0--2----|-----2-----3h-0--2----|
o0-------------------|--0-------------------|--0-------------------|
---------------------|----------------------|----------------------|
---------------------|----------------------|----------------------|


----------------------|----------------------|----------------------|
--------3-------------|--------3-------------|--------3-------------|
-----2-----3h-0--2----|-----2-----3h-0--2----|-----2-----3h-0--2----|
--0-------------------|--0-------------------|--0-------------------|
----------------------|----------------------|----------------------|
----------------------|----------------------|----------------------|


----------------------|----------------------|----------------------|
--------3-------------|--------3-------------|--------3-------------|
-----2-----3h-0--2----|-----2-----3h-0--2----|-----2-----3h-0--2----|
--0-------------------|--0-------------------|--0-------------------|
----------------------|----------------------|----------------------|
----------------------|----------------------|----------------------|


----------------------|----------------------|---------------------||
--------3-------------|--------3-------------|--------3------------||
-----2-----3h-0--2----|-----2-----3h-0--2----|-----2-----3h-0--2--o||
--0-------------------|--0-------------------|--0-----------------o||
----------------------|----------------------|---------------------||
----------------------|----------------------|---------------------||


----------------------|----------------------|----------------------|
--------3-------------|--------3-------------|--------3-------------|
-----2-----3h-0--2----|-----2-----3h-0--2----|-----2-----3h-0--2----|
--0-------------------|--0-------------------|--0-------------------|
----------------------|----------------------|----------------------|
----------------------|----------------------|----------------------|


----------------------|----------------------|----------------------|
--------3-------------|--------3-------------|--------3-------------|
-----2-----3h-0--2----|-----2-----3h-0--2----|-----2-----3h-0--2----|
--0-------------------|--0-------------------|--0-------------------|
----------------------|----------------------|----------------------|
----------------------|----------------------|----------------------|


----------------------|----------------------|----------------------|
--------3-------------|--------3-------------|--------3-------------|
-----2-----3h-0--2----|-----2-----3h-0--2----|-----2-----3h-0--2----|
--0-------------------|--0-------------------|--0-------------------|
----------------------|----------------------|----------------------|
----------------------|----------------------|----------------------|


----------------------|----------------------|----------------------|
--------3-------------|--------3-------------|--------3-------------|
-----2-----3h-0--2----|-----2-----3h-0--2----|-----2-----3h-0--2----|
--0-------------------|--0-------------------|--0-------------------|
----------------------|----------------------|----------------------|
----------------------|----------------------|----------------------|


----------------------|----------------------|----------------------|
--------3-------------|--------3-------------|--------3-------------|
-----2-----3h-0--2----|-----2-----3h-0--2----|-----2-----3h-0--2----|
--0-------------------|--0-------------------|--0-------------------|
----------------------|----------------------|----------------------|
----------------------|----------------------|----------------------|


----------------------|----------------------|----------------------|
--------3-------------|--------3-------------|--------3-------------|
-----2-----3h-0--2----|-----2-----3h-0--2----|-----2-----3h-0--2----|
--0-------------------|--0-------------------|--0-------------------|
----------------------|----------------------|----------------------|
----------------------|----------------------|----------------------|


----------------------|----------------------|----------------------|
--------3-------------|--------3-------------|--------3-------------|
-----2-----3h-0--2----|-----2-----3h-0--2----|-----2-----3h-0--2----|
--0-------------------|--0-------------------|--0-------------------|
----------------------|----------------------|----------------------|
----------------------|----------------------|----------------------|


----------------------|----------------------|----------------------|
--------3-------------|--------3-------------|--------3-------------|
-----2-----3h-0--2----|-----2-----3h-0--2----|-----2-----3h-0--2----|
--0-------------------|--0-------------------|--0-------------------|
----------------------|----------------------|----------------------|
----------------------|----------------------|----------------------|


----------------------|----------------------|----------------------|
--------3-------------|--------3-------------|--------3-------------|
-----2-----3h-0--2----|-----2-----3h-0--2----|-----2-----3h-0--2----|
--0-------------------|--0-------------------|--0-------------------|
----------------------|----------------------|----------------------|
----------------------|----------------------|----------------------|


----------------------||---------------------|----------------------|
--------3-------------||-------3-------------|--------3-------------|
-----2-----3h-0--2----||o---2-----3h-0--2----|-----2-----3h-0--2----|
--0-------------------||o0-------------------|--0-------------------|
----------------------||---------------------|----------------------|
----------------------||---------------------|----------------------|


----------------------|----------------------|----------------------|
--------3-------------|--------3-------------|--------3-------------|
-----2-----3h-0--2----|-----2-----3h-0--2----|-----2-----3h-0--2----|
--0-------------------|--0-------------------|--0-------------------|
----------------------|----------------------|----------------------|
----------------------|----------------------|----------------------|


----------------------|----------------------|----------------------|
--------3-------------|--------3-------------|--------3-------------|
-----2-----3h-0--2----|-----2-----3h-0--2----|-----2-----3h-0--2----|
--0-------------------|--0-------------------|--0-------------------|
----------------------|----------------------|----------------------|
----------------------|----------------------|----------------------|


----------------------|----------------------|----------------------|
--------3-------------|--------3-------------|--------3-------------|
-----2-----3h-0--2----|-----2-----3h-0--2----|-----2-----3h-0--2----|
--0-------------------|--0-------------------|--0-------------------|
----------------------|----------------------|----------------------|
----------------------|----------------------|----------------------|


---------------------||----------------------|----------------------|
--------3------------||--------3-------------|--------3-------------|
-----2-----3h-0--2--o||-----2-----3h-0--2----|-----2-----3h-0--2----|
--0-----------------o||--0-------------------|--0-------------------|
---------------------||----------------------|----------------------|
---------------------||----------------------|----------------------|


----------------------|----------------------|----------------------|
--------3-------------|--------3-------------|--------3-------------|
-----2-----3h-0--2----|-----2-----3h-0--2----|-----2-----3h-0--2----|
--0-------------------|--0-------------------|--0-------------------|
----------------------|----------------------|----------------------|
----------------------|----------------------|----------------------|


----------------------|----------------------|----------------------|
--------3-------------|--------3-------------|--------3-------------|
-----2-----3h-0--2----|-----2-----3h-0--2----|-----2-----3h-0--2----|
--0-------------------|--0-------------------|--0-------------------|
----------------------|----------------------|----------------------|
----------------------|----------------------|----------------------|


----------------------|----------------------|----------------------|
--------3-------------|--------3-------------|--------3-------------|
-----2-----3h-0--2----|-----2-----3h-0--2----|-----2-----3h-0--2----|
--0-------------------|--0-------------------|--0-------------------|
----------------------|----------------------|----------------------|
----------------------|----------------------|----------------------|


----------------------|----------------------|----------------------|
--------3-------------|--------3-------------|--------3-------------|
-----2-----3h-0--2----|-----2-----3h-0--2----|-----2-----3h-0--2----|
--0-------------------|--0-------------------|--0-------------------|
----------------------|----------------------|----------------------|
----------------------|----------------------|----------------------|


----------------------|----------------------|-------||
--------3-------------|--------3-------------|--3----||
-----2-----3h-0--2----|-----2-----3h-0--2----|--2----||
--0-------------------|--0-------------------|--0----||
----------------------|----------------------|-------||
----------------------|----------------------|-------||


_______________________________________________________
_______________________________________________________



Guitar 2 :

                                                       ^               ^     
E |----|----|----|----|----|----|----|----|----|----|--3L---|--3----||-1----|
B |----|----|----|----|----|----|----|----|----|----|--3L---|--3----||-3----|
G |----|----|----|----|----|----|----|----|----|----|--2L---|--2----||o2----|
D |----|----|----|----|----|----|----|----|----|----|--0L---|--0----||o0----|
A |----|----|----|----|----|----|----|----|----|----|-------|-------||------|
E |----|----|----|----|----|----|----|----|----|----|-------|-------||------|

       ^  ^          ^       ^                                                
----|--0--3----|-----1----|-------|----|----|----|----|----|----|---||--10---|
----|--1--3----|-----3----|--3----|----|----|----|----|----|----|---||--10---|
----|--2--3----|-----2----|--2----|----|----|----|----|----|----|--o||--10---|
----|----------|----------|--0----|----|----|----|----|----|----|--o||--0----|
----|----------|----------|-------|----|----|----|----|----|----|---||-------|
----|----------|----------|-------|----|----|----|----|----|----|---||-------|

                                                                                
----|--8----|----|--7----|----|----|----|--10---|----|--8----|----|--10---|----|
----|--8----|----|--6----|----|----|----|--10---|----|--8----|----|--10---|----|
----|--5----|----|--7----|----|----|----|--10---|----|--5----|----|--7----|----|
----|-------|----|-------|----|----|----|--0----|----|-------|----|-------|----|
----|-------|----|-------|----|----|----|-------|----|-------|----|-------|----|
----|-------|----|-------|----|----|----|-------|----|-------|----|-------|----|

                                                              ^              
----|----|----|----|----|----|----|----|----|----|----|----|--3L---|--3----||
----|----|----|----|----|----|----|----|----|----|----|----|--3L---|--3----||
----|----|----|----|----|----|----|----|----|----|----|----|--2L---|--2----||
----|----|----|----|----|----|----|----|----|----|----|----|--0L---|--0----||
----|----|----|----|----|----|----|----|----|----|----|----|-------|-------||
----|----|----|----|----|----|----|----|----|----|----|----|-------|-------||

 ^            ^  ^          ^       ^                                        
-1----|----|--0--3----|-----1----|-------|----|----|----|----|----|----|---||
-3----|----|--1--3----|-----3----|--3----|----|----|----|----|----|----|---||
o2----|----|--2--3----|-----2----|--2----|----|----|----|----|----|----|--o||
o0----|----|----------|----------|--0----|----|----|----|----|----|----|--o||
------|----|----------|----------|-------|----|----|----|----|----|----|---||
------|----|----------|----------|-------|----|----|----|----|----|----|---||

                                                                           
--10---|----|--8----|----|--7----|----|----|----|--10---|----|--8----|----|
--10---|----|--8----|----|--6----|----|----|----|--10---|----|--8----|----|
--10---|----|--5----|----|--7----|----|----|----|--10---|----|--5----|----|
--0----|----|-------|----|-------|----|----|----|--0----|----|-------|----|
-------|----|-------|----|-------|----|----|----|-------|----|-------|----|
-------|----|-------|----|-------|----|----|----|-------|----|-------|----|

                         ^
--10---|----|----|----|--10---||
--10---|----|----|----|--10---||
--7----|----|----|----|--10---||
-------|----|----|----|-------||
-------|----|----|----|-------||
-------|----|----|----|-------||


________________________________
________________________________



Guitar 3 : 


E |-------------|-------------|-------------|-------------|-------------|
B |-------------|-------------|-------------|-------------|-------------|
G |-------------|-------------|-------------|-------------|-------------|
D |-------------|-------------|-------------|-------------|-------------|
A |-------------|-------------|-------------|-------------|-------------|
E |-------------|-------------|-------------|-------------|-------------|


-------------|-------------|-------------|-------------|-------------|----|----||
-------------|-------------|-------------|-------------|-------------|----|----||
-------------|-------------|-------------|-------------|-------------|----|----||
-------------|-------------|-------------|-------------|-------------|----|----||
-------------|-------------|-------------|-------------|-------------|----|----||
-------------|-------------|-------------|-------------|-------------|----|----||


---|----------|-------------|-------------|-----------5--6-------|--5-------|
---|----------|-------------|-------------|-----------------8----|-----6----|
o--|----------|-------------|-------------|----------------------|----------|
o--|----------|-------------|-------------|----------------------|----------|
---|----------|-------------|-------------|----------------------|----------|
---|----------|-------------|-------------|----------------------|----------|


-----------5--6-------|--5-------|-----------5--6-------|--5-------|
--3--------------8----|-----6----|--3--------------8----|-----6----|
----------------------|----------|----------------------|----------|
----------------------|----------|----------------------|----------|
----------------------|----------|----------------------|----------|
----------------------|----------|----------------------|----------|


-----------5--6-------|--5------||-----------12-10L-----|--10-------12-10L-----|
--3--------------8----|-----6---||-----10-11------------|-----10-11------------|
----------------------|--------o||----------------------|----------------------|
----------------------|--------o||--0-------------------|----------------------|
----------------------|---------||----------------------|----------------------|
----------------------|---------||----------------------|----------------------|


--10-------12-10L-----|--10-------12-10L-----|--10-------13-10L-----|
-----10-11------------|-----10-11------------|-----10-12------------|
----------------------|----------------------|----------------------|
----------------------|----------------------|----------------------|
----------------------|----------------------|----------------------|
----------------------|----------------------|----------------------|


--10-------13-10L-----|--10-------13-10L-----|--10-------13-10------|
-----10-12------------|-----10-12------------|-----10-12------------|
----------------------|----------------------|----------------------|
----------------------|----------------------|----------------------|
----------------------|----------------------|----------------------|
----------------------|----------------------|----------------------|


-----------12-10L-----|--10-------12-10L-----|--10-------12-10L-----|
-----10-11------------|-----10-11------------|-----10-11------------|
----------------------|----------------------|----------------------|
--0-------------------|----------------------|----------------------|
----------------------|----------------------|----------------------|
----------------------|----------------------|----------------------|


--10-------12-10L-----|--10-------12-10L-----|--10-------12-10L-----|
-----10-11------------|-----10-11------------|-----10-11------------|
----------------------|----------------------|----------------------|
----------------------|----------------------|----------------------|
----------------------|----------------------|----------------------|
----------------------|----------------------|----------------------|


--10-------12-10L-----|--10-------12-10------|-------------|-------------|
-----10-11------------|-----10-11------------|-------------|-------------|
----------------------|----------------------|-------------|-------------|
----------------------|----------------------|-------------|-------------|
----------------------|----------------------|-------------|-------------|
----------------------|----------------------|-------------|-------------|


-------------|-------------|-------------|-------------|-------------|
-------------|-------------|-------------|-------------|-------------|
-------------|-------------|-------------|-------------|-------------|
-------------|-------------|-------------|-------------|-------------|
-------------|-------------|-------------|-------------|-------------|
-------------|-------------|-------------|-------------|-------------|


-------------|-------------|-------------|----|----||---|----------|
-------------|-------------|-------------|----|----||---|----------|
-------------|-------------|-------------|----|----||o--|----------|
-------------|-------------|-------------|----|----||o--|----------|
-------------|-------------|-------------|----|----||---|----------|
-------------|-------------|-------------|----|----||---|----------|


-------------|-------------|-----------5--6-------|--5-------|
-------------|-------------|-----------------8----|-----6----|
-------------|-------------|----------------------|----------|
-------------|-------------|----------------------|----------|
-------------|-------------|----------------------|----------|
-------------|-------------|----------------------|----------|


-----------5--6-------|--5-------|-----------5--6-------|--5-------|
--3--------------8----|-----6----|--3--------------8----|-----6----|
----------------------|----------|----------------------|----------|
----------------------|----------|----------------------|----------|
----------------------|----------|----------------------|----------|
----------------------|----------|----------------------|----------|


-----------5--6-------|--5------||-----------12-10L-----|--10-------12-10L-----|
--3--------------8----|-----6---||-----10-11------------|-----10-11------------|
----------------------|--------o||----------------------|----------------------|
----------------------|--------o||--0-------------------|----------------------|
----------------------|---------||----------------------|----------------------|
----------------------|---------||----------------------|----------------------|


--10-------12-10L-----|--10-------12-10L-----|--10-------13-10L-----|
-----10-11------------|-----10-11------------|-----10-12------------|
----------------------|----------------------|----------------------|
----------------------|----------------------|----------------------|
----------------------|----------------------|----------------------|
----------------------|----------------------|----------------------|


--10-------13-10L-----|--10-------13-10L-----|--10-------13-10------|
-----10-12------------|-----10-12------------|-----10-12------------|
----------------------|----------------------|----------------------|
----------------------|----------------------|----------------------|
----------------------|----------------------|----------------------|
----------------------|----------------------|----------------------|


-----------12-10L-----|--10-------12-10L-----|--10-------12-10L-----|
-----10-11------------|-----10-11------------|-----10-11------------|
----------------------|----------------------|----------------------|
--0-------------------|----------------------|----------------------|
----------------------|----------------------|----------------------|
----------------------|----------------------|----------------------|


--10-------12-10L-----|--10-------12-10L-----|--10-------12-10L-----|
-----10-11------------|-----10-11------------|-----10-11------------|
----------------------|----------------------|----------------------|
----------------------|----------------------|----------------------|
----------------------|----------------------|----------------------|
----------------------|----------------------|----------------------|


--10-------12-10L-----|--10-------12-10------|----||
-----10-11------------|-----10-11------------|----||
----------------------|----------------------|----||
----------------------|----------------------|----||
----------------------|----------------------|----||
----------------------|----------------------|----||


____________________________________________________
____________________________________________________



Bass :


G |-------|----|----|----|-------|----|----|----|-------|----|----|----||
D |-------|----|----|----|-------|----|----|----|-------|----|----|----||
A |-------|----|----|----|-------|----|----|----|-------|----|----|----||
D |--0----|----|----|----|--0----|----|----|----|--0----|----|----|----||


----10---|-----10---|-----10---|-----10---|-----10---|-----10---|-----10---|
o--------|--12------|--12------|--12------|----------|--12------|--12------|
o--------|----------|----------|----------|----------|----------|----------|
-0-------|----------|----------|----------|--0-------|----------|----------|


-----10---|-----10---|-----10---|-----10---|-----10--||-----10---|-----10---|
--12------|----------|--12------|--12------|--12----o||--12------|--12------|
----------|----------|----------|----------|--------o||----------|----------|
----------|--0-------|----------|----------|---------||----------|----------|


-----10---|-----10---|-----10---|-----10---|-----10---|-----10---|-----10---|
--12------|--12------|--12------|--12------|--12------|--12------|--12------|
----------|----------|----------|----------|----------|----------|----------|
----------|----------|----------|----------|----------|----------|----------|


-----10---|-----10---|-----10---|-----10---|-----10---|-----10---|-----10---|
--12------|--12------|--12------|--12------|--12------|--12------|--12------|
----------|----------|----------|----------|----------|----------|----------|
----------|----------|----------|----------|----------|----------|----------|


-------|----|----|----|-------|----|----|----|-------|----|----|----||----10---|
-------|----|----|----|-------|----|----|----|-------|----|----|----||o--------|
-------|----|----|----|-------|----|----|----|-------|----|----|----||o--------|
--0----|----|----|----|--0----|----|----|----|--0----|----|----|----||-0-------|


-----10---|-----10---|-----10---|-----10---|-----10---|-----10---|-----10---|
--12------|--12------|--12------|----------|--12------|--12------|--12------|
----------|----------|----------|----------|----------|----------|----------|
----------|----------|----------|--0-------|----------|----------|----------|


-----10---|-----10---|-----10---|-----10--||-----10---|-----10---|-----10---|
----------|--12------|--12------|--12----o||--12------|--12------|--12------|
----------|----------|----------|--------o||----------|----------|----------|
--0-------|----------|----------|---------||----------|----------|----------|


-----10---|-----10---|-----10---|-----10---|-----10---|-----10---|-----10---|
--12------|--12------|--12------|--12------|--12------|--12------|--12------|
----------|----------|----------|----------|----------|----------|----------|
----------|----------|----------|----------|----------|----------|----------|


-----10---|-----10---|-----10---|-----10---|-----10---|-----10---|-------||
--12------|--12------|--12------|--12------|--12------|--12------|-------||
----------|----------|----------|----------|----------|----------|-------||
----------|----------|----------|----------|----------|----------|--0----||






Legend
L - tied note
x - dead note
h - hammer on/pull off
b - bend
s - slide
~ - vibrato
g - ghost note
> - accentuated note
t - trill
M - palm mute
. - staccato
P - popping (bass)
S - slapping (bass)
+ - tapping
W - wide vibrato
< - fade in
w - whammy bar
= - tremolo picking
v - brush up
^ - brush down
V - pick stroke up
n - pick stroke down
Login or Register to remove this ad.

2 comments on You Can Hear The Cry Of The Planet (Quartet)

Good stuff! Though you could

5

Good stuff! Though you could just type one measure of guitar part I and say "this repeats through the whole piece, except for the last measure" :D

Four years later, the review

5

Four years later, the review hasn't changed. :p