Ads

Wutai (Final Fantasy VII) Guitar Tab

Submitted: May 16, 2014 by JordanVS

5
Average: 5 (4 votes)
Download | Listen
Game: Final Fantasy VII
Composer(s): Nobuo Uematsu
Style: Arrangement, Fingerstyle
Series: Final Fantasy

AutoScroll: Slow | Medium | Fast
Wutai                                                 
Final Fantasy VII
Nobuo Uematsu
JordanVS

-3/4
-Tempo : 114



     Q    Q    Q       H.              H.              H.              Q    Q    Q     
E||--0----3----2----|--0------------|--L------------|--L------------|--5----8----7----|
B||--0----3----2----|--0------------|--L------------|--L------------|--5----8----7----|
G||--0--------------|---------------|---------------|---------------|-----------------|
D||-------2----0----|---------------|---------------|---------------|--7---------5----|
A||-----------------|--3------------|--L------------|--3------------|-------7---------|
E||-----------------|---------------|---------------|---------------|-----------------|


  H.              H.              H.              H        Q       H        Q       H        Q     
--5------------|--L------------|--L------------|----------------|----------------|----------------|
--5------------|--L------------|--L------------|----------------|----------------|----------------|
---------------|---------------|---------------|----------------|----------------|----------------|
--0------------|--L------------|--0------------|----------------|----------------|----------------|
---------------|---------------|---------------|--0--------0----|--0--------0----|--0--------0----|
---------------|---------------|---------------|----------------|----------------|----------------|


  H        Q       H        Q       Q    Q    Q       H        Q       Q    Q    Q     
----------------|--5-------------|--3--------------|--L-------------|--L--------------|
----------------|--5--------5----|--3--------------|--L-------------|--L--------------|
----------------|-----------4----|-----------------|----------------|-----------------|
----------------|----------------|-----------------|----------------|-----------------|
--0--------0----|--0--------0----|--0----0----0----|--0--------0----|--0----0----0----|
----------------|----------------|-----------------|----------------|-----------------|


  Q    Q    Q       Q    Q    Q       H        Q       Q    Q    Q       H        Q     
--5----8----7----|--5--------------|--L-------------|--L--------------|--5-------------|
--5----8----7----|--5--------------|--L-------------|--L--------------|--5--------5----|
-----------------|-----------------|----------------|-----------------|-----------4----|
-----------------|-----------------|----------------|-----------------|----------------|
--0---------0----|--0----0----0----|--0--------0----|--0----0----0----|--0--------0----|
-----------------|-----------------|----------------|-----------------|----------------|


  Q    Q    Q       H        Q       Q    Q    Q       Q    Q    Q       Q    Q    Q     
--3--------------|--L-------------|--L--------------|--5----8----7----|--5--------------|
--3--------------|--L-------------|--L--------------|--5----8----7----|--5---------5----|
-----------------|----------------|-----------------|-----------------|------------4----|
-----------------|----------------|-----------------|-----------------|-----------------|
--0----0----0----|--0--------0----|--0----0----0----|--0---------0----|--0----0----0----|
-----------------|----------------|-----------------|-----------------|-----------------|


  H        Q       Q    Q    Q       Q    Q    Q       H        Q       H        Q     
--3-------------|--L--------------|-------3---------|--L-------------|--L-------------|
--3-------------|--L--------------|--5----3---------|--L-------------|--L-------------|
----------------|-----------------|--4--------------|----------------|----------------|
----------------|-----------------|-----------------|----------------|----------------|
--0--------0----|--0----0----0----|-----------------|----------------|----------------|
----------------|-----------------|--3---------3----|--3--------3----|--3--------3----|


  H        Q        Q    Q    Q       Q    Q    Q       H        Q       Q    Q    Q     
--L-------------|--------8---------|--L--------------|----------------|-----------------|
--L-------------|--10----8---------|--L--------------|----------------|--1---------0----|
----------------|---9--------------|-----------------|----------------|--0--------------|
----------------|------------------|-----------------|----------------|------------0----|
----------------|---8---------8----|--8----8----8----|----------------|-----------------|
--3--------3----|------------------|-----------------|--1--------1----|--1----1----1----|


  H        Q       Q    Q    Q       H        Q       Q    Q    Q       H        Q     
----------------|-----------------|----------------|-----------------|----------------|
----------------|-----------------|----------------|-----------------|----------------|
--2-------------|--L--------------|--L-------------|--L--------------|----------------|
--2-------------|--L--------------|--L-------------|--L--------------|----------------|
--0--------0----|--0----0----0----|--0--------0----|--0----0----0----|--0--------0----|
----------------|-----------------|----------------|-----------------|----------------|


  Q    Q    Q       H        Q       Q    Q    S S S S      H        Q       Q    Q    Q     
-----------------|----------------|------------------0-||-----------------|-----------------|
-----------------|----------------|------------0-1-3---||---0-------------|--L--------------|
-----------------|----------------|--------------------||*--2-------------|--L--------------|
-----------------|----------------|--------------------||*--2-------------|--2--------------|
--0----0----0----|--0--------0----|--0----0----0-------||---0--------0----|--0----0----0----|
-----------------|----------------|--------------------||-----------------|-----------------|


  H        Q       Q    Q    S S S S    Q    Q    Q       Q    Q    Q       H        Q     
----------------|------------------0-|-----------------|-----------------|----------------|
----------------|------------0-1-3---|-------1----0----|-----------------|----------------|
--0-------------|--------------------|--2--------------|--2--------------|--L-------------|
----------------|--------------------|--2--------------|--L--------------|--L-------------|
--0--------0----|--0----0----0-------|-----------------|-----------------|----------------|
----------------|--------------------|--3---------3----|--3----3----3----|--3--------3----|


  Q    Q    S S S S    H        Q       Q    Q    Q       H        Q       Q    Q    Q     
--------------------|----------------|-----------------|----------------|-----------------|
--------------0-1-3-|----------------|-----------------|----------------|-----------------|
--L---------2-------|--0-------------|-----------------|--0-------------|-------0---------|
--L-----------------|--2-------------|--2--------------|----------------|--2---------2----|
--------------------|--3-------------|-----------------|----------------|-----------------|
--3----3----3-------|--1--------1----|--1----1----1----|--1--------1----|--1----1----1----|

1.									   2.
  Q    Q    Q       Q    Q    Q       H        Q       Q    Q    S S S S      Q    Q    Q     
-----------------|-----------------|----------------|------------------0--||-----------------|
-------1----0----|-----------------|----------------|------------0-1-3----||--3----1----0----|
--2--------------|--2--------------|----------------|--------------------*||-----------------|
--0--------------|--L--------------|--L-------------|--L-----------------*||-----------------|
--0--------------|--L--------------|--L-------------|--L------------------||-----------------|
--3---------3----|--3----3----3----|--3--------3----|--3----3----3--------||--1----1----1----|


  Q    Q    Q       Q    Q    Q       H        Q       Q    Q    Q       H        Q     
-----------------|-----------------|----------------|-----------------|----------------|
-------1----0----|-----------------|----------------|-----------------|----------------|
--2--------------|--2--------------|--L-------------|-----------------|----------------|
--2--------------|--L--------------|--L-------------|-----------------|----------------|
--0---------0----|--0----0----0----|--0--------0----|--0----0----0----|--0--------0----|
-----------------|-----------------|----------------|-----------------|----------------|


  H.             
---------------||
---------------||
---------------||
---------------||
--0------------||
---------------||




Duration Legend
---------------
W - whole
H - half
Q - quarter
E - 8th
S - 16th
T - 32nd
X - 64th
. - note dotted
|-n-|  - n-tuplets


Tablature Legend
----------------
L - tied note
^ - brush up
v - brush down
Login or Register to remove this ad.

1 comment on Wutai

That was freakin awesome!

5

That was freakin awesome!