Ads

Who Am I? (Final Fantasy VII) Guitar Tab

Submitted: May 22, 2010 by Daugreano

4.666665
Average: 4.7 (3 votes)
Download | Listen
Game: Final Fantasy VII
Composer(s): Nobuo Uematsu
Style: Alternate picking, Transcription
Series: Final Fantasy

AutoScroll: Slow | Medium | Fast
Song: Who Am I?
Game: Final Fantasy VII
Composer: Nobuo Uematsu
Tabbed by: Daugreano

Guitar

   E   E   E   E   E   E     E   E   E   E   E   E     E   E   E   E   E   E     E   E   E   E   E    
E|---------0---1---0-------|---------0---1---0-------|---------0---1---0-------|---------0---1---0---|
B|-----1---------------1---|-----1---------------1---|-----1---------------1---|-----1---------------|
G|-2-----------------------|-2-----------------------|-2-----------------------|-2-------------------|
D|-------------------------|-------------------------|-------------------------|---------------------|
A|-------------------------|-------------------------|-------------------------|---------------------|
E|-------------------------|-------------------------|-------------------------|---------------------|
                                                                                                    
                                                                                                    
   E   E   E   E   E   E     E   E   E   E   E   E     E   E   E   E   E   E     E   E   E   E   E    
E|---------2---4---2-------|---------2---4---2-------|---------2---4---2-------|---------2---4---2---|
B|-----2---------------2---|-----2---------------2---|-----2---------------2---|-----2---------------|
G|-2-----------------------|-2-----------------------|-2-----------------------|-2-------------------|
D|-------------------------|-------------------------|-------------------------|---------------------|
A|-------------------------|-------------------------|-------------------------|---------------------|
E|-------------------------|-------------------------|-------------------------|---------------------|
                                                                                                    
                                                                                                    
   E   E   E   E   E   E     E   E   E   E   E   E     E   E   E   E   E   E     E   E   E   E   E    
E|-------------5-----------|-------------5-----------|-------------5-----------|-------------5-------|
B|-----2---5-------5---2---|-----2---5-------5---2---|-----2---5-------5---2---|-----2---5-------5---|
G|-3-----------------------|-3-----------------------|-3-----------------------|-3-------------------|
D|-------------------------|-------------------------|-------------------------|---------------------|
A|-------------------------|-------------------------|-------------------------|---------------------|
E|-------------------------|-------------------------|-------------------------|---------------------|
                                                                                                    
                                                                                                    
   E   E   E   E   E   E     E   E   E   E   E   E     E   E   E   E   E   E     E   E   E   E   E    
E|---------4---5---4-------|---------4---5---4-------|---------4---5---4-------|---------4---5---4---|
B|-1---2---------------2---|-1---2---------------2---|-1---2---------------2---|-1---2---------------|
G|-------------------------|-------------------------|-------------------------|---------------------|
D|-------------------------|-------------------------|-------------------------|---------------------|
A|-------------------------|-------------------------|-------------------------|---------------------|
E|-------------------------|-------------------------|-------------------------|---------------------|
                                                                                                    
                                                                                                    
   E   E   E   E   E   E     E   E   E   E   E   E     E   E   E   E   E   E     E   E   E   E   E   E    
E|-------------5-----------|-------------5-----------|-------------5-----------|-------------5-----------|
B|-----2---4-------4---2---|-----2---4-------4---2---|-----2---4-------4---2---|-----2---4-------4---2---|
G|-4-----------------------|-4-----------------------|-4-----------------------|-4-----------------------|
D|-------------------------|-------------------------|-------------------------|-------------------------|
A|-------------------------|-------------------------|-------------------------|-------------------------|
E|-------------------------|-------------------------|-------------------------|-------------------------|
                                                                                                         
                                                                                                         
   E   E   E   E   E   E     E   E   E   E   E   E     E   E   E   E   E   E     E   E   E   E   E   E
E|-------------5-----------|-------------5-----------|-------------5-----------|-------------5-----------|
B|-----2---4-------4---2---|-----2---4-------4---2---|-----2---4-------4---2---|-----2---4-------4---2---|
G|-4-----------------------|-4-----------------------|-4-----------------------|-4-----------------------|
D|-------------------------|-------------------------|-------------------------|-------------------------|
A|-------------------------|-------------------------|-------------------------|-------------------------|
E|-------------------------|-------------------------|-------------------------|-------------------------|


Then Repeat...
Login or Register to remove this ad.

1 comment on Who Am I?

:D

5

With the right effects, it's damn near perfect