Ads

Weapon Raid (Final Fantasy VII) Guitar Tab

Submitted: Jul 31, 2010 by Daugreano

5
Average: 5 (1 vote)
Download | Listen
Game: Final Fantasy VII
Composer(s): Nobuo Uematsu
Style: Transcription
Series: Final Fantasy

AutoScroll: Slow | Medium | Fast
Song: Weapon Raid
Game: Final Fantasy VII
Composer: Nobuo Uematsu
Tabbed by: Daugreano


Guitar: 

                              2x                    2x 
    W        Q    Q    Q    Q      Q    Q    Q    Q      Q    Q    Q    Q      Q    Q    Q    Q
E|--------|---------------------|---------------------|---------------------|---------------------|
B|--------|---------------------|---------------------|------2----1----2----|-4----2----1----2----|
G|--------|---------------------|------1----0----1----|-3-------------------|---------------------|
D|--------|---------------------|-3-------------------|---------------------|---------------------|
A|--------|-1----4----3----4----|---------------------|---------------------|---------------------|
E|--------|---------------------|---------------------|---------------------|---------------------|

   Q    Q    Q    Q      Q    Q    Q    Q      E   S  S  S  S  E   S  S  S  S  S   S  S
E|-1----4----3----4----|-6----4----3----4----|-9---8-----9-----6---5-----6---------------|
B|---------------------|---------------------|---------------------------------6---5-----|
G|---------------------|---------------------|-------------------------------------------|
D|---------------------|---------------------|-------------------------------------------|
A|---------------------|---------------------|-------------------------------------------|
E|---------------------|---------------------|-------------------------------------------|

   S  S  E   S  S  S  S  E   E   E   E     Q    Q    Q    Q      Q    Q    Q    Q
E|---------------------------------------|---------------------|---------------------|
B|-6-------------------------------------|---------------------|---------------------|
G|-------6---5-----6---------------------|---------------------|---------------------|
D|-----------------------8---------------|---------------------|-1-------------------|
A|---------------------------8---6-------|-1----4----3----4----|------4----3----4----|
E|-----------------------------------9---|---------------------|---------------------|
                     2x
   Q    Q    Q    Q      Q    Q    Q    Q      Q    Q    Q    Q      Q    Q    Q    Q
E|---------------------|---------------------|---------------------|-1----4----3----4----|
B|---------------------|------2----1----2----|-4----2----1----2----|---------------------|
G|------1----0----1----|-3-------------------|---------------------|---------------------|
D|-3-------------------|---------------------|---------------------|---------------------|
A|---------------------|---------------------|---------------------|---------------------|
E|---------------------|---------------------|---------------------|---------------------|

   Q    Q    Q    Q      E   S  S  S  S  E   S  S  S  S  E   S  S    S  S  E   S  S  S  S  E   E   E   E
E|-6----4----3----4----|-----8-----9-----6---5-----6---------------|-----------------------------------6---|
B|---------------------|---------------------------------6---5-----|-6-----------------------------6-------|
G|---------------------|-6-----------------------------------------|-------6---5-----6---------6-----------|
D|---------------------|-------------------------------------------|-----------------------8---------------|
A|---------------------|-------------------------------------------|---------------------------------------|
E|---------------------|-------------------------------------------|---------------------------------------|

   E   S  S  S  S  E   S  S  S  S  E   S  S    S  S  E   S  S  S  S  E   E   E   E
E|-------------------------------------------|---------------------------------------|
B|-6---5-----6-------------------------------|---------------------------------------|
G|-----------------6---5-----6---------------|-----------------------------------6---|
D|---------------------------------8---7-----|-8-----------------------------8-------|
A|-------------------------------------------|-------8---7-----8---------8-----------|
E|-------------------------------------------|-----------------------9---------------|

   Q    E   E   Q    E   E     E   E   E   E   Q    Q      W        W        Q    E   E   Q    E   E 
E|---------------------------|---------------------------|--------|--------|---------------------------|
B|---------------------------|---------------------------|--------|--------|---------------------------|
G|---------------------------|---------------------------|--------|--------|---------------------------|
D|-0------------0------------|-0---------------0----2----|-3------|--------|-2--------1---2--------1---|
A|------2---4--------2---4---|-----4---2---4-------------|--------|--------|------4------------4-------|
E|---------------------------|---------------------------|--------|--------|---------------------------|

   E   E   E   E   Q    Q      W        W        Q    E   E   Q    E   E     E   E   E   E   Q    Q
E|---------------------------|--------|--------|---------------------------|---------------------------|
B|---------------------------|--------|--------|---------------------------|---------------------------|
G|---------------------------|-1------|--------|-1--------0---1--------0---|-1---0-------0---1----3----|
D|-2---1-------1---2----4----|--------|--------|------3------------3-------|---------3-----------------|
A|---------4-----------------|--------|--------|---------------------------|---------------------------|
E|---------------------------|--------|--------|---------------------------|---------------------------|

   Q    E   E   Q    E   E     E   E   E   E   Q    Q      H     H       H     H 
E|---------------------------|---------------------------|-------------|-------------|
B|-0------------0------------|-0---------------0----2----|-------------|-------------|
G|------1---3--------1---3---|-----3---1---3-------------|-------0-----|-------1-----|
D|---------------------------|---------------------------|-------------|-4-----------|
A|---------------------------|---------------------------|-3-----------|-------------|
E|---------------------------|---------------------------|-------------|-------------|

   H     H       H     H       H     H       H     H       W
E|-------------|-------------|-------------|-------------|--------|
B|-------------|-------------|-------------|-------------|--------|
G|-------0-----|-0-----------|-------0-----|-------1-----|-0------|
D|-------------|-------4-----|-------------|-4-----------|--------|
A|-3-----------|-------------|-3-----------|-------------|--------|
E|-------------|-------------|-------------|-------------|--------|

Then repeat...
Login or Register to remove this ad.