Ads

Waltz de Chocobo (Final Fantasy VII) Guitar Tab

Submitted: Sep 15, 2013 by JordanVS

4.88889
Average: 4.9 (9 votes)
Download | Listen
Game: Final Fantasy VII
Composer(s): Nobuo Uematsu
Style: Arrangement, Fingerstyle
Series: Final Fantasy

AutoScroll: Slow | Medium | Fast
Waltz de Chocobo                                 
Final Fantasy VII
Nobuo Uematsu
JordanVS

3/4
Tempo = 170

          ^    ^            ^    ^            ^    ^            ^    ^     
     Q    Q    Q       Q    Q    Q       Q    Q    Q       Q    Q    Q     
E||------------3----|------------1----|------------3----|------------1----|
B||-------5----5----|-------3----3----|-------5----5----|-------3----3----|
G||-------5----5----|-------3----3----|-------5----5----|-------3----3----|
D||-------5---------|-------3---------|-------5---------|-------3---------|
A||--3--------------|--1--------------|--3--------------|--1--------------|
E||-----------------|-----------------|-----------------|-----------------|


  Q    Q    E  E     Q    E  E  E  E     E  E  E  E  E  E     Q    Q    Q     
--3---------0-----|-------------------|--0--1--0--1--0--1--|--0--------------|
---------------1--|-------------1--3--|--------------------|-----------------|
------------0-----|--2-------2--------|--------------0-----|-----------------|
-------2----------|-------0-----3-----|--------2-----------|-------0----3----|
--3---------------|--1----------------|--3-----------------|--1--------------|
------------------|-------------------|--------------------|-----------------|


  Q    Q    Q       Q    Q    Q       Q    E  E  E  E     Q    Q    Q     
-----------------|-----------------|-------------------|-----------------|
-----------------|------------3----|--1----1--3--1-----|--1--------------|
------------0----|-----------------|-------------0--3--|-----------------|
-------2---------|-------0----3----|-------2-----------|--2----1----0----|
--3--------------|--1--------------|--3----------------|--3----2----1----|
-----------------|-----------------|-------------------|-----------------|


  Q    Q    E  E     Q    E  E  E  E     E  E  E  E  E  E     Q    Q    Q     
--0---------------|-------------------|--------------------|-----------------|
------------2-----|----------------0--|--2--3--2--3--2--3--|--2--------------|
---------------2--|-------------2-----|--------------------|-----------------|
------------2-----|--4-------4--0-----|--------------2-----|------------0----|
--0----4----------|-------2-----------|--0-----4-----------|-------2---------|
------------------|--3----------------|--------------------|--3--------------|


  Q    Q    Q       Q    Q    Q       Q    E  E  E  E     Q    Q    Q     
-----------------|-----------------|-------------------|-----------------|
-----------------|------------0----|----------0--------|-----------------|
-----------------|-----------------|--2----2-----2--0--|--2---------0----|
------------2----|------------0----|-------------2-----|------------0----|
-------4---------|-------2---------|--0----4-----------|-------2---------|
--5--------------|--3--------------|-------------------|--3--------------|


  Q    E  E  E  E     Q    Q    Q       H        Q       H        Q     
----------------0--|--5--------------|----------------|----------------|
----------0--2-----|-----------------|--0--------0----|--3--------3----|
--2----2-----------|-----------------|--0--------0----|--4--------4----|
-------------2-----|-----------------|--0--------0----|--5--------5----|
--4----------------|--0--------------|--0--------0----|--0--------0----|
--5----------------|------------0----|----------------|----------------|


  H        Q       H        Q       Q    E  E  E  E     Q    Q    Q     
--3--------3----|--7--------7----|-------------------|-----------------|
--3--------3----|--8--------8----|----------0--------|-----------------|
--4--------4----|--7--------7----|--2----2-----2--0--|--2---------0----|
----------------|----------------|--2----2-----------|-------0----0----|
--0--------0----|--0--------0----|--0----4-----4-----|-------2----2----|
----------------|----------------|-------------------|--3--------------|


  Q    E  E  Q       Q    H          
------------------|----------------||
------------------|----------------||
--2-------2--2----|--2-------------||
--2-------2--2----|--2-------------||
--4-------4--4----|--4-------------||
--5-------5--5----|--5-------------||




Duration Legend
---------------
W - whole
H - half
Q - quarter
E - 8th
S - 16th
. - note dotted


Tablature Legend
----------------
L - tied note
^ - brush up
v - brush down
Login or Register to remove this ad.