Ads

Tifa's Theme (SongeLeReveur version) (Final Fantasy VII) Guitar Tab

Submitted: Sep 28, 2009 by kenor (Last updated: Feb 06, 2010)

5
Average: 5 (5 votes)
Download | Listen
Game: Final Fantasy VII
Composer(s): Nobuo Uematsu
Style: 2 or more instruments, Arrangement, Natural harmonics, Transcription
Series: Final Fantasy

Click here for a video example.

AutoScroll: Slow | Medium | Fast
Tifa's Theme
~Final Fantasy VII~ 
Composed by: Nobuo Uematsu
Arranged by: SongeLeReveur
Transcribed by: kenor

Rhytm: 4/4 metrum


Guitar I:
---------

E||-------|-------|-------|-------|-------|-------|-------|-------|-------|
B||-------|-------|-------|-------|-------|-------|-------|-------|-------|
G||-------|-------|-------|-------|-------|-------|-------|-------|-------|
D||-------|-------|-------|-------|-------|-------|-------|-------|-------|
A||-------|-------|-------|-------|-------|-------|-------|-------|-------|
E||-------|-------|-------|-------|-------|-------|-------|-------|-------|


                                                     H        E    E  E  E   
E||-------|-------|-------|-------|-------|-------|-------------------------|
A||-------|-------|-------|-------|-------|-------|-------------------7--5--|
D||-------|-------|-------|-------|-------|-------|-------------------------|
G||-------|-------|-------|-------|-------|-------|--------------5g7--------|
B||-------|-------|-------|-------|-------|-------|-------------------------|
E||-------|-------|-------|-------|-------|-------|-------------------------|


     E  H        E    E  E     E    H        E     E  E     W                 
E||-------------------------|----------------------------|-------------------|
A||--7--------------5g7--5--|--7-------------------------|-------------------|
D||-------------------------|----------------------------|-------------------|
G||-----7--------7----------|-----7g8--------8--8g10--8--|--7----------------|
B||-------------------------|----------------------------|-------------------|
E||-------------------------|----------------------------|-------------------|


     H        E    E  E  E     E  H        E  E  E     E   H        E     E  E   
E||-------------------------|-----------------------|------------------9g10--9--|
A||-------------------7--5--|--7--------------7--5--|--7--10--------7-----------|
D||-------------------------|-----------------------|---------------------------|
G||--L--------L--5g7--------|-----7--------7--------|---------------------------|
B||-------------------------|-----------------------|---------------------------|
E||-------------------------|-----------------------|---------------------------|


     W                   H        E    E   E   E      E  H          E  E  E   
E||--7----------------|--L--------L---------------|--------------------------|
A||-------------------|---------------------------|--------------------8--7--|
D||-------------------|-------------------12--11--|--12----------------------|
G||-------------------|--------------8g9----------|------9--------8g9--------|
B||-------------------|---------------------------|--------------------------|
E||-------------------|---------------------------|--------------------------|


     E   H          E  E  E       W                   H.             Q     
E||--------------------------|---------------------|----------------------|
A||--8s--5--------3g5--3--5--|--5g7----------------|--L------------5g7----|
D||--------------------------|---------------------|----------------------|
G||--------------------------|---------------------|----------------------|
B||--------------------------|---------------------|----------------------|
E||--------------------------|---------------------|----------------------|


     E  E  E  E    Q    Q         Q      H          E  E     W                  
E||--------------------------|----------------------------|--------------------|
A||--7--5--4--5--5g8----7----|--7g5----5g3-------------3--|--5~----------------|
D||--------------------------|--------------------3g4-----|--------------------|
G||--------------------------|----------------------------|--------------------|
B||--------------------------|----------------------------|--------------------|
E||--------------------------|----------------------------|--------------------|


     W                     H        Q    Q       H        H         
E||-------------------|-----------------------|--9--------7--------|
A||--L----------------|--2g3--------5----7----|--------------------|
D||-------------------|-----------------------|--------------------|
G||-------------------|-----------------------|--------------------|
B||-------------------|-----------------------|--------------------|
E||-------------------|-----------------------|--------------------|


                                                                |--3--|  |--3--|   
     Q      Q    Q    Q        Q    Q    Q    Q        H        E  E  E  E  E  E   
E||--L---------------------|-----------------------|------------------------------|
A||-------2g3----5----7----|--10----8----3----5----|--\2--------------2--2--0--2--|
D||------------------------|-----------------------|------------------------------|
G||------------------------|-----------------------|------------------------------|
B||------------------------|-----------------------|------------------------------|
E||------------------------|-----------------------|------------------------------|


       H.           E   E     H.           E  S   S     H          E    E  E  E   
E||------------------------|--9------------L--------|--12~---------L-------------|
A||--2g3------------3s--5--|------------------5s-10-|----------------------7--5--|
D||------------------------|------------------------|----------------------------|
G||------------------------|------------------------|-----------------5g7--------|
B||------------------------|------------------------|----------------------------|
E||------------------------|------------------------|----------------------------|


     E  H        E    E  E     E    H        E     E  E   
E||-------------------------|----------------------------|
A||--7--------------5g7--5--|--7-------------------------|
D||-------------------------|----------------------------|
G||-----7--------7----------|-----7g8--------8--8g10--8--|
B||-------------------------|----------------------------|
E||-------------------------|----------------------------|


     H         E   E      Q        H        E    E  E  E   
E||-----------10---------------|--------------------------|
A||---------------10-----------|--------------------7--5--|
D||-------------------11g12----|--11--------L-------------|
G||--7-------------------------|---------------5g7--------|
B||----------------------------|--------------------------|
E||----------------------------|--------------------------|


                    |--3--|                                 
     E  H        E  E  E  E     E     H        E     E  E   
E||--------------------------|--------------------8g10--9--|
A||--7-----------------7--5--|--7--7g10--------7-----------|
D||--------------------------|-----------------------------|
G||-----7--------7--L--------|-----------------------------|
B||--------------------------|-----------------------------|
E||--------------------------|-----------------------------|


                 |---3---|  |---3---|                                     
     Q     Q     E   E   E  E   E   E     Q        Q.      E      E   E   
E||--7----14----12--11--10--9----------|-------10g12----------14g15--14--|
A||----------------------------10--12--|------------------12-------------|
D||------------------------------------|--9------------------------------|
G||------------------------------------|---------------------------------|
B||------------------------------------|---------------------------------|
E||------------------------------------|---------------------------------|


      E   H         E      E   E      E   H            E   E   E   
E||--15----------------14g15--14--|--15--12--------10g12--10--12--|
A||------12--------12-------------|-------------------------------|
D||-------------------------------|-------------------------------|
G||-------------------------------|-------------------------------|
B||-------------------------------|-------------------------------|
E||-------------------------------|-------------------------------|


         W                   H.               Q     
E||--12g14----------------|--L------------13g14----|
A||-----------------------|------------------------|
D||-----------------------|------------------------|
G||-----------------------|------------------------|
B||-----------------------|------------------------|
E||-----------------------|------------------------|


      E   E   E   E   Q     E   E      Q     H        E   E   
E||--14--12--11--12--15----14--12--|--12----10--------7--10--|
A||--------------------------------|-------------------------|
D||--------------------------------|-------------------------|
G||--------------------------------|-------------------------|
B||--------------------------------|-------------------------|
E||--------------------------------|-------------------------|


                                NH                                    
         W                      W                                     
E||--10g12----------------|----------------------|-------------------|
A||-----------------------|--<>12----------------|-------------------|
D||-----------------------|----------------------|-------------------|
G||-----------------------|----------------------|-------------------|
B||-----------------------|----------------------|-------------------|
E||-----------------------|----------------------|-------------------|


E||-------------------|-------------------|-------------------||
A||-------------------|-------------------|-------------------||
D||-------------------|-------------------|-------------------||
G||-------------------|-------------------|-------------------||
B||-------------------|-------------------|-------------------||
E||-------------------|-------------------|-------------------||



Guitar II:
---------

     ^                   ^            ^       ^                 
     W                   H.           Q       W                 
E||--5----------------|--0------------3----|--2----------------|
B||--3----------------|--3------------3----|--3----------------|
G||--2----------------|--3------------3----|--2----------------|
D||--0----------------|--0------------0----|--0----------------|
A||-------------------|--------------------|-------------------|
E||-------------------|--------------------|-------------------|


                         ^                   ^            ^     
     W                   W                   H.           Q     
E||--L----------------|--5----------------|--0------------3----|
B||--L----------------|--3----------------|--3------------3----|
G||--L----------------|--2----------------|--3------------3----|
D||--L----------------|--0----------------|--0------------0----|
A||-------------------|-------------------|--------------------|
E||-------------------|-------------------|--------------------|


     ^                                                ^                      
     E  E  E  E  H           Q.     E  E  E  E  E     Q    E  Q    E  E  E   
E||--3--2--0--2--L--------|--L---------------------|--5---------------------|
B||--3--------------------|--L------------3--------|--3-------3-------3-----|
G||--2--------------------|--L---------2-----2-----|--2----2-------2-----2--|
D||--0--------------------|--L------0-----------0--|--0---------------------|
A||-----------------------|------------------------|------------------------|
E||-----------------------|------------------------|------------------------|


     ^               ^       ^                                               
     Q    E  Q    E  Q       Q    E  Q    E  E  E     Q    E  Q    E  E  E   
E||--0---------------3----|--2---------------------|------------------------|
B||--3-------3-------3----|--3-------3-------3-----|----------3-------3-----|
G||--3----3-------3--3----|--2----2-------2-----2--|-------2-------2-----2--|
D||--0--------------------|--0---------------------|--0---------------------|
A||-----------------------|------------------------|------------------------|
E||-----------------------|------------------------|------------------------|


     ^                        ^               ^       ^                      
     Q    E  Q    E  E  E     Q    E  Q    E  Q       E  E  E  E  Q    Q     
E||--5---------------------|--0---------------3----|--3--2--0--2--L---------|
B||--3-------3-------3-----|--3-------3-------3----|--3----------------3----|
G||--2----2-------2-----2--|--3----3-------3--3----|--2---------------------|
D||--0---------------------|--0--------------------|--0---------------------|
A||------------------------|-----------------------|------------------------|
E||------------------------|-----------------------|------------------------|


     ^                                                                         
     S  S E  H.              E  E  E  Q    E  E  E     E  E  E  Q    E  E  E   
E||--0h-2-0--L------------|-----------0-------------|-----------0-------------|
B||--3-------L------------|--------3-------3--------|--------3-------3-----3--|
G||--3-------L------------|-----2-------------2-----|-----3-------------3-----|
D||--0-------L------------|--0-------------------0--|--0----------------------|
A||-----------------------|-------------------------|-------------------------|
E||-----------------------|-------------------------|-------------------------|


     ^      ^                                                                   
     Q.     Q    S  S E  E     Q    E  Q    E  E  E     E  E  E  Q    E  E  E   
E||--0------2----2h-3-2-----|------------------------|-----------0-------------|
B||--3------3------------3--|------------------3-----|--------3-------3--------|
G||--2------2---------------|--2-------2----------2--|-----2-------------2-----|
D||--0----------------------|-------0-------0--------|--0-------------------0--|
A||-------------------------|------------------------|-------------------------|
E||-------------------------|------------------------|-------------------------|


              ^                                                 ^                
     E  E  E  Q    E  E  E     E  E  E  E  E  E  E  E     E  E  Q.     E  E  E   
E||-----------2-------------|-----------3-----------3--|--------3---------3-----|
B||-----------2----2--------|--------------------------|--------3------------3--|
G||-----------2-------2-----|--------0-----------0-----|--------0------0--------|
D||--------4-------------4--|-----0-----------0--------|-----2---------2--------|
A||-----4-------------------|--------------------------|------------------------|
E||--2----------------------|--3-----------2-----------|--0---------------------|


                                     ^                                           
     E  E  E  Q    E  E  E     E  E  Q.     E  E  E     E  Q    S  S E  E  Q     
E||-----------3-------------|--------0---------------|----------0h-2-0----------|
B||----------------3--------|--------2---------2-----|----------3-------3-------|
G||-------------------0-----|--------4------------4--|-----2---------------2----|
D||--------2-------------2--|-----2------------------|--0-----------------------|
A||-----2-------------------|--0------------0--------|--------------------------|
E||--0----------------------|------------------------|--------------------------|


              ^                                           ^             
     H        H           E  E  E  Q    E  E  E     E  E  H.            
E||--------------------|-----------0-------------|--------2------------|
B||-----------3--------|-----------3-------------|--------3------------|
G||-----------2--------|--------0-------0--------|--------2------------|
D||--0-----------------|-----2-------------2-----|-----4---------------|
A||--------------------|--3-------------------3--|--2------------------|
E||--------------------|-------------------------|---------------------|


                                ^                                            
     E  E  E  E  E  E  E  E     W                   E  E  E  E  E  E  E  E   
E||--------------------------|--0----------------|-----------0--------------|
B||--------------0--------0--|--0----------------|--------3-----3-----------|
G||-----------1--------1-----|--1----------------|-----2-----------2-----2--|
D||--------4--------4--------|-------------------|--0-----------------0-----|
A||-----2--------------------|-------------------|--------------------------|
E||--0-----------------------|-------------------|--------------------------|


                                                                 ^             
     E  E  E  E  E  E  E  E     E  E  E  E  E  E  E  E     E  E  H.            
E||-----------0--------------|-----------0--------------|--------0------------|
B||--------3-----3-----------|--------3-----3-----------|--------3------------|
G||-----4-----------4-----4--|-----2-----------2-----2--|-----2--2------------|
D||--------------------------|--------------------------|---------------------|
A||--2-----------------2-----|--3-----------------3-----|--1------------------|
E||--------------------------|--------------------------|---------------------|


     E  E  E  E  E  E  E  E     E  E  E  Q    E  E  E     E  E  E  E  E  E  E  E   
E||-----------0--------------|-----------0-------------|-----------0--------------|
B||--------------0-----------|-------------------------|--------------0-----------|
G||--------2--------2--------|--------2-------2-----2--|--------2--------2-----2--|
D||-----2--------------2-----|-----3-------------3-----|-----2--------------4-----|
A||--0--------------------0--|--0----------------------|--0-----------------------|
E||--------------------------|-------------------------|--------------------------|


           ^                                               ^                
     E  E  H.              E  E  E  Q    E  E  E     E  E  Q.     E  E  E   
E||--------0------------|-----------0-------------|--------0---------0-----|
B||--------2------------|--------3-------3--------|--------3---------------|
G||-----0---------------|-----2-------------2-----|-----3---------------3--|
D||---------------------|--0-------------------0--|--0------------0--------|
A||--0------------------|-------------------------|------------------------|
E||---------------------|-------------------------|------------------------|


                       ^       ^                                                
     E  E  E  E  E  E  Q       Q.     Q    E  E  E     E  E  E  E  E  E  E  E   
E||-----------0--------0----|--2--------------------|-----------2--------------|
B||--------3-----3-----3----|--3--------------3-----|--------3-----3-----------|
G||-----2-----------2--2----|--2------2----2-----2--|-----2-----------2-----2--|
D||--0----------------------|-----------------------|--0-----------------0-----|
A||-------------------------|-----------------------|--------------------------|
E||-------------------------|-----------------------|--------------------------|


              ^                                                 ^                
     E  E  E  Q    E  E  E     E  E  E  E  E  E  E  E     E  E  Q.     E  E  E   
E||-----------2-------------|-----------3-----------3--|--------3---------3-----|
B||-----------2-------------|--------------------------|--------3------------3--|
G||-----------2-------2-----|--------0-----------0-----|--------0---------------|
D||--------4----------------|-----0-----------0--------|-----2---------2--------|
A||-----4----------4-----4--|--------------------------|------------------------|
E||--2----------------------|--3-----------2-----------|--0---------------------|


          ^       ^                                                         
          |--3-|  |--3--|  |--3--|     |--3--|  |--3--|  |--3--|  |--3--|   
     Q    Q    E  E  E  E  E  E  E     E  E  E  E  E  E  E  E  E  E  E  E   
E||-------0-------3--------3--------|--------------------9-----------------|
B||-------3-------3--3-----3--3-----|-----------0-----------------0--------|
G||-------0----------------------0--|--------6-----6-----------6-----6-----|
D||------------2--------2-----------|-----7-----------7-----7-----------7--|
A||---------------------------------|--0-----------------------------------|
E||--0------------------------------|--------------------------------------|


     ^                       ^                         ^              
     H        E  E  E  E     W                   E  E  H        Q     
E||--0--------7-----------|--0----------------|--------0-------------|
B||--7-----------7--------|--7----------------|--------3-------------|
G||--6--------------6-----|--6----------------|--------0-------------|
D||--0-----------------0--|--0----------------|-----2----------------|
A||-----------------------|-------------------|--3--------------3----|
E||-----------------------|-------------------|----------------------|


          ^                                          ^                 
     Q    H.              E  E  E  E  E  E  E  E     W                 
E||-------0------------|--------------------------|--0----------------|
B||-------3------------|--------------0--------0--|--0----------------|
G||-------2------------|-----------1--------1-----|--1----------------|
D||--------------------|--------4--------4--------|--4----------------|
A||--2-----------------|-----2--------------------|-------------------|
E||--------------------|--0-----------------------|-------------------|


           ^                     ^               ^             ^     
     E  E  H.              E  E  H.              H.            Q     
E||--------5------------|--------6------------|--8------------10----|
B||--------3------------|--------3------------|--5-------------7----|
G||-----2---------------|-----3---------------|--5-------------7----|
D||--0------------------|--0------------------|--0-------------0----|
A||---------------------|---------------------|---------------------|
E||---------------------|---------------------|---------------------|


     W                  
E||--L----------------||
B||--L----------------||
G||--L----------------||
D||--L----------------||
A||-------------------||
E||-------------------||




Legend:
-------
W - whole
H - half
Q - quarter
E - 8th
S - 16th
. - note dotted
|-n-|  - n-tuplets
L - tied note
g - grace note
NH - natural harmonic
h - hammer-on
s - legato slide
\ -  slide into from above or out of downwards
~ - vibrato
^ - brush up
Login or Register to remove this ad.

3 comments on Tifa's Theme (SongeLeReveur version)

Beautiful, again thank you

5

Beautiful, again thank you for tabbing this.

beutiful. I admire the

5

beutiful. I admire the originality in this piece. its also my favorite character theme. I look forward to future arrangments

Woaw it's been a while I know

5

Woaw it's been a while I know this tab exists but I've never commented it !

I absolutely have to say THANK YOU for this awesome tab.
THANK YOU for being the first ever who tabbed an arrangement of SongeLeReveur (you have all my respect!).
THANK YOU for being a completely awesome arranger and tabber.
Kenor, really, I THANK YOU for all these things.

Keep up the AWESOME work ;-)