Still More Fighting (Final Fantasy VII) Guitar Tab

Submitted: Oct 22, 2007 by EeinX (Last updated: May 31, 2009)

4.61905
Average: 4.6 (21 votes)
Download | Listen
Game: Final Fantasy VII
Composer(s): Nobuo Uematsu
Style: 2 or more instruments, Transcription
Series: Final Fantasy

This song is also called Boss Theme

AutoScroll: Slow | Medium | Fast
Guitar 1

      |--3--|       |--3--|        
      E  E  E  Q    E  E  E  Q     
E||-------------------------------|
B||-------------------------------|
G||*------------------------------|
D||*-----------5-------------7----|
A||---0--0--0--3----0--0--0--5----|
E||-------------------------------|


  |--3--|  |--3--|  |--3--|         
  E  E  E  E  E  E  E  E  E  E.  S  
-----------------------------------|
-----------------------------------|
-----------------------------------|
-----------------------------------|
--0--0--0--6--5-----5--------------|
-----------------8-----8--7--8---7-|


  |--3--|       |--3--|        
  E  E  E  Q    E  E  E  Q     
------------------------------|
------------------------------|
------------------------------|
-----------5-------------7----|
--0--0--0--3----0--0--0--5----|
------------------------------|


  |--3--|  |--3--|  |--3--|         
  E  E  E  E  E  E  E  E  E  E.  S  
-----------------------------------|
-----------------------------------|
-----------------------------------|
-----------------------------------|
--0--0--0--6--5-----5--------------|
-----------------8-----8--7--8---7-|


  |--3--|       |--3--|         
  E  E  E  Q    E  E  E   Q     
-------------------------------|
-------------------------------|
-------------------------------|
-----------8-------------10----|
-----------6--------------8----|
--8--8--8-------8--8--8--------|


  |--3--|  |---3--|  |---3---|           
  E  E  E  E  E   E  E   E   E   E.   S  
----------------------------------------|
----------------------------------------|
----------------------------------------|
----------------------------------------|
-----------9--8------8------------------|
--8--8--8--------11-----11--10--11---10-|


  |--3--|       |--3--|         
  E  E  E  Q    E  E  E   Q     
-------------------------------|
-------------------------------|
-------------------------------|
-----------8-------------10----|
-----------6--------------8----|
--8--8--8-------8--8--8--------|


  |--3--|  |---3--|  |---3---|           
  E  E  E  E  E   E  E   E   E   E.   S  
----------------------------------------|
----------------------------------------|
----------------------------------------|
----------------------------------------|
-----------9--8------8------------------|
--8--8--8--------11-----11--10--11---10-|


  |--3--|       |--3--|        
  E  E  E  Q    E  E  E  Q     
------------------------------|
------------------------------|
------------------------------|
-----------5-------------7----|
--0--0--0--3----0--0--0--5----|
------------------------------|


  |--3--|  |--3--|  |--3--|         
  E  E  E  E  E  E  E  E  E  E.  S  
-----------------------------------|
-----------------------------------|
-----------------------------------|
-----------------------------------|
--0--0--0--6--5-----5--------------|
-----------------8-----8--7--8---7-|


  |--3--|       |--3--|        
  E  E  E  Q    E  E  E  Q     
------------------------------|
------------------------------|
------------------------------|
-----------5-------------7----|
--0--0--0--3----0--0--0--5----|
------------------------------|


  |--3--|  |--3--|  |--3--|         
  E  E  E  E  E  E  E  E  E  E.  S  
-----------------------------------|
-----------------------------------|
-----------------------------------|
-----------------------------------|
--0--0--0--6--5-----5--------------|
-----------------8-----8--7--8---7-|


  |--3--|       |--3--|         
  E  E  E  Q    E  E  E   Q     
-------------------------------|
-------------------------------|
-------------------------------|
-----------8-------------10----|
-----------6--------------8----|
--8--8--8-------8--8--8--------|


  |--3--|  |---3--|  |---3---|           
  E  E  E  E  E   E  E   E   E   E.   S  
----------------------------------------|
----------------------------------------|
----------------------------------------|
----------------------------------------|
-----------9--8------8------------------|
--8--8--8--------11-----11--10--11---10-|


  |--3--|       |--3--|         
  E  E  E  Q    E  E  E   Q     
-------------------------------|
-------------------------------|
-------------------------------|
-----------8-------------10----|
-----------6--------------8----|
--8--8--8-------8--8--8--------|


  |--3--|  |---3--|  |---3---|           
  E  E  E  E  E   E  E   E   E   E.   S  
----------------------------------------|
----------------------------------------|
----------------------------------------|
----------------------------------------|
-----------9--8------8------------------|
--8--8--8--------11-----11--10--11---10-|


           |---3---|   |---3---|   |---3---| 
   E.   S  E   E   E   E   E   E   E   E   E 
---------------------------------------------
----------------------------------12---------
--14--------------14--13--------------13-----
-------14-----14----------15--14----------14-
----------15---------------------------------
---------------------------------------------


           |---3---|   |---3---|   |---3---| 
   E.   S  E   E   E   E   E   E   E   E   E 
---------------------------------------------
----------------------------------15---------
--17--------------17--16--------------16-----
-------17-14--17--------------17----------17-
--------------------------17-----------------
---------------------------------------------


   H.           Q       H        H         
----------------8----|--8--------7--------|
--13------------8----|--6--------5--------|
--14-----------------|--------------------|
--15-----------------|--------------------|
---------------------|--------------------|
---------------------|--------------------|


   Q     Q    H           W                 
---8\------------------|-------------------|
--10\------------------|-------------------|
-----------------------|-------------------|
-----------------------|-------------------|
-----------------------|-------------------|
-----------------------|-------------------|


          |---3---|   |---3---|   |---3---|  
   E.  S  E   E   E   E   E   E   E   E   E  
---------------------------------------------
---------------------------------12----------
--14-------------14--13--------------13------
-------------14----------15--14----------14--
---------15----------------------------------
---------------------------------------------


           |---3---|   |---3---|   |---3---| 
   E.   S  E   E   E   E   E   E   E   E   E 
---------------------------------------------
----------------------------------15---------
--17--------------17--16--------------16-----
-------17-14--17--------------17----------17-
--------------------------17-----------------
---------------------------------------------


   H.           Q       H        H         
----------------8----|--8--------7--------|
--13------------8----|--6--------5--------|
--14-----------------|--------------------|
--15-----------------|--------------------|
---------------------|--------------------|
---------------------|--------------------|


   Q     Q    H           W                 
---8\------------------|-------------------|
--10\------------------|-------------------|
-----------------------|-------------------|
-----------------------|-------------------|
-----------------------|-------------------|
-----------------------|-------------------|


  |---3--|  |---3--|   |--3--|  |--3--|   
  E  E   E  E   E  E   E  E  E  E  E  E   
-----------------------------------------|
--------------------------------7--------|
------------7-------------7--9-----9--7--|
--7--9--10-----10--9--10-----------------|
-----------------------------------------|
-----------------------------------------|


  |---3--|  |---3--|   |--3--|  |--3--|   
  E  E   E  E   E  E   E  E  E  E  E  E   
-----------------------------------------|
-----------------------------------------|
--9--7------7-------------------------7--|
--------10-----10--9--10--9--7--6--9-----|
-----------------------------------------|
-----------------------------------------|


  |---3--|  |---3--|   |--3--|  |--3--|   
  E  E   E  E   E  E   E  E  E  E  E  E   
-----------------------------------------|
--------------------------------7--------|
------------7-------------7--9-----9--7--|
--7--9--10-----10--9--10-----------------|
-----------------------------------------|
-----------------------------------------|


  |---3--|  |--3--|   |--3--|         
  E   E  E  E  E  E   E  E  E  Q      
-------------------------------------|
-------------------------------------|
--9---------------7------------------|
-----10--7--6--9-----10--7--6--7~----|
-------------------------------------|
-------------------------------------|


  |---3--|  |---3--|   |--3--|  |--3--|   
  E  E   E  E   E  E   E  E  E  E  E  E   
-----------------------------------------|
--------------------------------7--------|
------------7-------------7--9-----9--7--|
--7--9--10-----10--9--10-----------------|
-----------------------------------------|
-----------------------------------------|


  |---3--|  |---3--|   |--3--|  |--3--|   
  E  E   E  E   E  E   E  E  E  E  E  E   
-----------------------------------------|
-----------------------------------------|
--9--7------7-------------------------7--|
--------10-----10--9--10--9--7--6--9-----|
-----------------------------------------|
-----------------------------------------|


  |---3--|  |---3--|   |--3--|  |--3--|   
  E  E   E  E   E  E   E  E  E  E  E  E   
-----------------------------------------|
--------------------------------7--------|
------------7-------------7--9-----9--7--|
--7--9--10-----10--9--10-----------------|
-----------------------------------------|
-----------------------------------------|


  |---3--|  |--3--|   |--3--|         
  E   E  E  E  E  E   E  E  E  Q      
-------------------------------------|
-------------------------------------|
--9---------------7------------------|
-----10--7--6--9-----10--7--6--7~----|
-------------------------------------|
-------------------------------------|


   H         Q     Q     
------------------------|
------------------------|
------------------------|
---9--------10----12----|
--10--------12----14----|
------------------------|


   W                 
--------------------|
--------------------|
--------------------|
--14----------------|
--15----------------|
--------------------|


  Q    Q     Q     Q     
--7----7-----8----10----|
--8----8----10----12----|
------------------------|
------------------------|
------------------------|
------------------------|


   W                 
--12----------------|
--13----------------|
--------------------|
--------------------|
--------------------|
--------------------|


   H         Q     Q     
------------------------|
------------------------|
------------------------|
--11--------12----14----|
--12--------14----16----|
------------------------|


   W                 
--------------------|
--------------------|
--------------------|
--15----------------|
--17----------------|
--------------------|


   Q     Q     Q     Q     
--14----14----15----17----|
--15----15----17----19----|
--------------------------|
--------------------------|
--------------------------|
--------------------------|


   W                 
--13----------------|
--11----------------|
--------------------|
--------------------|
--------------------|
--------------------|


  |--3--|            |---3---|   
  E  E  E   H        E   E   E   
--------------------------------|
-----------10--------8--10--11--|
--7-----7-----------------------|
--------------------------------|
--------------------------------|
--------------------------------|


                     |---3--|   
   Q     Q     Q     E  E   E   
-------------------------------|
--10---------------------------|
--------10----12----10--9------|
---------------------------12--|
-------------------------------|
-------------------------------|


  |---3--|             |---3--|   
  E  E   E   H         E   E  E   
---------------------------------|
---------------------------------|
--9---------------------------9--|
--------10--12--------10--12-----|
---------------------------------|
---------------------------------|


   H.           Q     
---------------------|
---------------------|
---------------------|
--12-----------------|
---------------------|
---------------------|


  |--3--|           |---3--|   
  E  E  E  H        E  E   E   
------------------------------|
------------------------------|
-----------9--------7--9--10--|
--7-----7---------------------|
------------------------------|
------------------------------|


                    |---3--|   
  Q     Q     Q     E  E   E   
------------------------------|
------------------------------|
--9---------------------------|
-------10----12----10--9------|
--------------------------12--|
------------------------------|


  |---3--|             |---3--|   
  E  E   E   H         E   E  E   
---------------------------------|
---------------------------------|
---------------------------------|
--9---------------------------9--|
--------10--12--------10--12-----|
---------------------------------|


   H.           Q     
---------------------|
---------------------|
---------------------|
---------------------|
--12-----------------|
---------------------|


  |--3--|            |---3---|   
  E  E  E   H        E   E   E   
--------------------------------|
-----------10--------8--10--11--|
--7-----7-----------------------|
--------------------------------|
--------------------------------|
--------------------------------|


                     |---3--|   
   Q     Q     Q     E  E   E   
-------------------------------|
--10---------------------------|
--------10----12----10--9------|
---------------------------12--|
-------------------------------|
-------------------------------|


  |---3--|             |---3--|   
  E  E   E   H         E   E  E   
---------------------------------|
---------------------------------|
--9---------------------------9--|
--------10--12--------10--12-----|
---------------------------------|
---------------------------------|


   H.           Q     
---------------------|
---------------------|
---------------------|
--12-----------------|
---------------------|
---------------------|


  |--3--|           |---3--|   
  E  E  E  H        E  E   E   
------------------------------|
------------------------------|
-----------9--------7--9--10--|
--7-----7---------------------|
------------------------------|
------------------------------|


                    |---3--|   
  Q     Q     Q     E  E   E   
------------------------------|
------------------------------|
--9---------------------------|
-------10----12----10--9------|
--------------------------12--|
------------------------------|


   |---3---|   |---3---|   |---3---|   |---3-
   E   E   E   E   E   E   E   E   E   E   E 
----------------------12--14--10-------------
------------------13--------------10---------
--------------12----------------------11-----
------10--14------------------------------12-
--10-----------------------------------------
---------------------------------------------


   |---3---|   |---3---|   |---3---|   |---3-
   E   E   E   E   E   E   E   E   E   E   E 
----------------------15--16--12-------------
--------------12--15--------------12---------
----------12--------------------------13-----
------12----------------------------------14-
--10-----------------------------------------
---------------------------------------------


   |---3---|   |---3---|   |---3---|   |---3-
   E   E   E   E   E   E   E   E   E   E   E 
----------------------12--17--12-------------
------------------13--------------15---------
--------------14----------------------14-----
----------14------------------------------14-
--12--15-------------------------------------
---------------------------------------------


   |---3---|   |---3---|   |---3---|         
   E   E   E   E   E   E   E   E   E   Q     
---------------------------------------------
---------------------------------------------
--------------14----------------------------*
----------14------14-------------------------
--12--15--------------15--12----------12-----
------------------------------15--12---------





Guitar 2

E||--------|-------|-------|-------|-------|
B||--------|-------|-------|-------|-------|
G||*-------|-------|-------|-------|-------|
D||*-------|-------|-------|-------|-------|
A||--------|-------|-------|-------|-------|
E||--------|-------|-------|-------|-------|

  W                 
-------------------|
-------------------|
-------------------|
-------------------|
--7----------------|
--5----------------|


           |----3----|     
  H        Q    Q    Q     
--------------------------|
--------------------------|
--------------------------|
--------------------------|
-----------9----9----9----|
--L--------7----7----7----|


  W                 
-------------------|
-------------------|
-------------------|
-------------------|
--7----------------|
--5----------------|


           |----3----|     
  H        Q    Q    Q     
--------------------------|
--------------------------|
--------------------------|
--------------------------|
--L--------9----9----9----|
-----------7----7----7----|


  W                 
-------------------|
-------------------|
-------------------|
--5----------------|
--3----------------|
-------------------|


           |----3----|     
  H        Q    Q    Q     
--------------------------|
--------------------------|
--------------------------|
--L--------7----7----7----|
-----------5----5----5----|
--------------------------|


  W                 
-------------------|
-------------------|
-------------------|
--5----------------|
--3----------------|
-------------------|


           |----3----|     
  H        Q    Q    Q     
--------------------------|
--------------------------|
--------------------------|
--L--------7----7----7----|
-----------5----5----5----|
--------------------------|


  H        H            H         H         
--------------------|----------------------|
--------------------|----------------------|
--------------------|----------------------|
--------------------|----------------------|
--7--------9--------|--10--------12--------|
--5--------7--------|---8--------10--------|


  H.           Q       H        H         
--------------------|--------------------|
--------------------|--------------------|
--------------------|--------------------|
--------------------|--------------------|
--3------------5----|--7--------6--------|
--1------------3----|--5--------4--------|


  W                   W                 
-------------------|-------------------|
-------------------|-------------------|
-------------------|-------------------|
-------------------|-------------------|
--7----------------|--L----------------|
--5----------------|-------------------|


  H        H            H         H         
--------------------|----------------------|
--------------------|----------------------|
--------------------|----------------------|
--------------------|----------------------|
--7--------9--------|--10--------12--------|
--5--------7--------|---8--------10--------|


  H.           Q       H        H         
--------------------|--------------------|
--------------------|--------------------|
--------------------|--------------------|
--------------------|--------------------|
--3------------5----|--7--------6--------|
--1------------3----|--5--------4--------|


  W                   W                 
-------------------|-------------------|
-------------------|-------------------|
-------------------|-------------------|
-------------------|-------------------|
--7----------------|--L----------------|
--5----------------|-------------------|


  PM PM PM PM PM PM    PM       
  |--3--|  |--3--|              
  E  E  E  E  E  E  E  E  Q     
-------------------------------|
-------------------------------|
-------------------------------|
-------------------------------|
--7--7--7--7--7--7--7--7-------|
--5--5--5--5--5--5--5--5-------|


  PM PM PM PM PM PM    PM       
  |--3--|  |--3--|              
  E  E  E  E  E  E  E  E  Q     
-------------------------------|
-------------------------------|
-------------------------------|
-------------------------------|
--7--7--7--7--7--7--7--7-------|
--5--5--5--5--5--5--5--5-------|


  PM PM PM PM PM PM    PM       
  |--3--|  |--3--|              
  E  E  E  E  E  E  E  E  Q     
-------------------------------|
-------------------------------|
-------------------------------|
-------------------------------|
--7--7--7--7--7--7--7--7-------|
--5--5--5--5--5--5--5--5-------|


  PM PM PM PM PM PM    PM       
  |--3--|  |--3--|              
  E  E  E  E  E  E  E  E  Q     
-------------------------------|
-------------------------------|
-------------------------------|
-------------------------------|
--7--7--7--7--7--7--7--7-------|
--5--5--5--5--5--5--5--5-------|


  PM PM PM PM PM PM    PM       
  |--3--|  |--3--|              
  E  E  E  E  E  E  E  E  Q     
-------------------------------|
-------------------------------|
-------------------------------|
-------------------------------|
--7--7--7--7--7--7--7--7-------|
--5--5--5--5--5--5--5--5-------|


  PM PM PM PM PM PM    PM       
  |--3--|  |--3--|              
  E  E  E  E  E  E  E  E  Q     
-------------------------------|
-------------------------------|
-------------------------------|
-------------------------------|
--7--7--7--7--7--7--7--7-------|
--5--5--5--5--5--5--5--5-------|


  PM PM PM PM PM PM    PM       
  |--3--|  |--3--|              
  E  E  E  E  E  E  E  E  Q     
-------------------------------|
-------------------------------|
-------------------------------|
-------------------------------|
--7--7--7--7--7--7--7--7-------|
--5--5--5--5--5--5--5--5-------|


  PM PM PM PM PM PM    PM       
  |--3--|  |--3--|              
  E  E  E  E  E  E  E  E  Q     
-------------------------------|
-------------------------------|
-------------------------------|
-------------------------------|
--7--7--7--7--7--7--7--7-------|
--5--5--5--5--5--5--5--5-------|


  H        Q    Q        W                 
---------------------|--------------------|
---------------------|--------------------|
---------------------|--------------------|
--5--------7----9----|--10----------------|
--5--------7----9----|--10----------------|
--3--------5----7----|---8----------------|


  Q    Q    Q    Q        W                 
----------------------|--------------------|
----------------------|--------------------|
----------------------|--------------------|
--5----5----7----9----|--10----------------|
--5----5----7----9----|--10----------------|
--3----3----5----7----|---8----------------|


  H        Q    Q       W                 
---------------------|-------------------|
---------------------|-------------------|
--2--------4----6----|--7----------------|
--2--------4----6----|--7----------------|
--0--------2----4----|--5----------------|
---------------------|-------------------|


  Q    Q    Q    Q       W                 
----------------------|-------------------|
----------------------|-------------------|
--2----2----4----6----|--3----------------|
--2----2----4----6----|--3----------------|
--0----0----2----4----|--1----------------|
----------------------|-------------------|


  Guitar harmony part. top and bottom seperat
  H                                          
---------------------------------------------
---------------------------------------------
---------------------------------------------
--0------------------------------------------
---------------------------------------------
--5------------------------------------------


  H        H           Q    H        Q     
--------------------|---------------------|
--------------------|-------1--------0----|
--------------------|--2----2--------0----|
--3--------5--------|--3------------------|
--5--------3--------|---------------------|
--------------------|---------------------|


  W                   H        H         
-------------------|--------------------|
-------------------|--------------------|
--2----------------|--------------------|
--3----------------|--------------------|
-------------------|--0--------2--------|
-------------------|--0--------7--------|


  H        H           Q    H        Q     
--------------------|---------------------|
--------------------|---------------------|
--------------------|---------------------|
--------------------|--2----5--------4----|
--3--------5--------|-------7--------5----|
--5--------7--------|--8------------------|


  W                 
-------------------|
-------------------|
-------------------|
--2----------------|
-------------------|
--8----------------|


  Guitar harmony part. top and bottom seperat
  H                                          
---------------------------------------------
---------------------------------------------
---------------------------------------------
--0------------------------------------------
---------------------------------------------
--5------------------------------------------


  H        H           Q    H        Q     
--------------------|---------------------|
--------------------|-------1--------0----|
--------------------|--2----2--------0----|
--3--------5--------|--3------------------|
--5--------3--------|---------------------|
--------------------|---------------------|


  W                   H        H         
-------------------|--------------------|
-------------------|--------------------|
--2----------------|--------------------|
--3----------------|--7--------9--------|
-------------------|--7--------5--------|
-------------------|--------------------|


           triple guitar harmony  
  H        H                      
---------------------------------|
-----------0---------------------|
--5--------7---------------------|
--7--------5---------------------|
---------------------------------|
---------------------------------|


  H        H           H        H         
-----------2--------|--3--------4--------|
--1-----------------|--------------------|
--9--------7--------|--7--------7--------|
--5--------7--------|--9--------9--------|
--------------------|--------------------|
--------------------|--------------------|


   W                 
---5----------------|
--------------------|
---9----------------|
--10----------------|
--------------------|
--------------------|


   Q    Q    H           
---L-------------------||
-----------------------||
---L------------------*||
---L------------------*||
-----------------------||
-----------------------||

Guitar 3

E||--------|-------|-------|-------|-------|
B||--------|-------|-------|-------|-------|
G||*-------|-------|-------|-------|-------|
D||*-------|-------|-------|-------|-------|
A||--------|-------|-------|-------|-------|
E||--------|-------|-------|-------|-------|


   |---3---|   |---3---|   |---3---|   |---3-
   E   E   E   E   E   E   E   E   E   E   E 
------------------17--20------------------16-
--------------17----------------------17-----
----------17----------------------16---------
------19----------------------18-------------
--19----------------------19-----------------
---------------------------------------------


   |---3---|   |---3---|   |---3---|   |---3-
   E   E   E   E   E   E   E   E   E   E   E 
------------------15--20------------------15-
--------------17----------------------15-----
----------17----------------------16---------
------17----------------------17-------------
--19----------------------17-----------------
---------------------------------------------


   |---3---|   |---3---|   |---3---|   |---3-
   E   E   E   E   E   E   E   E   E   E   E 
--20--17------17-----------------------------
----------18------18------18----------17-----
----------------------17------17----------17-
----------------------------------19---------
---------------------------------------------
---------------------------------------------


   |---3---|   |---3---|   |---3---|   |---3-
   E   E   E   E   E   E   E   E   E   E   E 
--17-----------------------------------------
------18------18----------17-----------------
----------19------19----------16------16-----
----------------------19----------18------18-
---------------------------------------------
---------------------------------------------


   |---3---|   |---3---|   |---3---|   |---3-
   E   E   E   E   E   E   E   E   E   E   E 
---------------------------------------------
----------------------13------------------13-
------------------14------------------14-----
--------------14----------14------14---------
--15------15------------------15-------------
------17-------------------------------------


             finger tap these notes.         
   |---3--|  |--------------3-------------|  
   E  E   E  E                        E   E  
-------------8-----------------------12--17--
--10-----10----------------------------------
------9--------------------------------------
---------------------------------------------
---------------------------------------------
---------------------------------------------


   |---3---|   |---3---|   |---3---|   |---3-
   E   E   E   E   E   E   E   E   E   E   E 
------------------17--20------------------16-
--------------17----------------------17-----
----------17----------------------16---------
------19----------------------18-------------
--19----------------------19-----------------
---------------------------------------------


   |---3---|   |---3---|   |---3---|   |---3-
   E   E   E   E   E   E   E   E   E   E   E 
------------------15--20------------------15-
--------------17----------------------15-----
----------17----------------------16---------
------17----------------------17-------------
--19----------------------17-----------------
---------------------------------------------


   |---3---|   |---3---|   |---3---|   |---3-
   E   E   E   E   E   E   E   E   E   E   E 
--20--17------17-----------------------------
----------18------18------18----------17-----
----------------------17------17----------17-
----------------------------------19---------
---------------------------------------------
---------------------------------------------


   |---3---|   |---3---|   |---3---|   |---3-
   E   E   E   E   E   E   E   E   E   E   E 
--17-----------------------------------------
------18------18----------17-----------------
----------19------19----------16------16-----
----------------------19----------18------18-
---------------------------------------------
---------------------------------------------


   |---3---|   |---3---|   |---3---|   |---3-
   E   E   E   E   E   E   E   E   E   E   E 
---------------------------------------------
----------------------13------------------13-
------------------14------------------14-----
--------------14----------14------14---------
--20------15------------------15-------------
------17-------------------------------------


             More tappage                    
   |---3--|  |--------3--------|   |---3---| 
   E  E   E  E             E   E   E   E   E 
-------------8------------12--17-------------
--10-----10-------------------------------13-
------9---------------------------17--14-----
---------------------------------------------
---------------------------------------------
---------------------------------------------


-------|-------|-------|-------|
-------|-------|-------|-------|
-------|-------|-------|-------|
-------|-------|-------|-------|
-------|-------|-------|-------|
-------|-------|-------|-------|


   |---3---|   |---3---|   |---3---|   |---3-
   E   E   E   E   E   E   E   E   E   E   E 
--------------10--------------10--12--14--12-
--10--12--13------13--12--13-----------------
---------------------------------------------
---------------------------------------------
---------------------------------------------
---------------------------------------------


   |---3---|   |---3---|   |---3---|  |---3--
   E   E   E   E   E   E   E   E   E  E   E  
--12--10------10-----------------------------
----------13------13--12--13--12--10--9--12--
---------------------------------------------
---------------------------------------------
---------------------------------------------
---------------------------------------------


   |---3---|   |---3---|   |---3---|   |---3-
   E   E   E   E   E   E   E   E   E   E   E 
--------------10--------------10--12--14--12-
--10--12--13------13--12--13-----------------
---------------------------------------------
---------------------------------------------
---------------------------------------------
---------------------------------------------


   |---3---|  |---3---|   |---3--|          
   E   E   E  E   E   E   E   E  E   Q      
--12-----------------10--------------------|
------13--10--9--12------13--10--9--10~----|
-------------------------------------------|
-------------------------------------------|
-------------------------------------------|
-------------------------------------------|





Duration Legend
---------------
W - whole
H - half
Q - quarter
E - 8th
S - 16th
T - 32nd
X - 64th
. - note dotted
|-n-|  - n-tuplets


Tablature Legend
----------------
L - tied note
x - dead note
g - grace note
(n) - ghost note
> - accentuded note
h - hammer on
p - pull off
\n/ - tremolo bar dip
\n - tremolo bar dive
-/n - tremolo bar Release up
/n\ - tremolo bar inverted dip
/n - tremolo bar return
-\n - tremolo bar Release down
S - shift slide
s - legato slide
/ -  slide into from below or out of upwards
\ -  slide into from above or out of downwards
~ - vibrato
W - wide vibrato
Login or Register to remove this ad.

12 comments on Still More Fighting

This text tab does nothing

This text tab does nothing for the song, please download the tab or even check out the midi. <3

You finally posted it =D it

You finally posted it =D it looks great man nice job, so this means you can do my Duke nukem 3d theme now lol

Greatest. Tab. Ever.

Greatest. Tab. Ever.

.........wow........

.........wow........

sounds more like the halo

sounds more like the halo theme to me

***EDITED BY MYSELF FOR

***EDITED BY MYSELF FOR USING IMPROPER LANGUAGE***

Wow...Im speechless!

5

Wow...Im speechless!

Very cool, it sounds

Very cool, it sounds great!

But there are some parts of the tab that are cut, mainly the third guitar... if you could fix it... we would be really gratefull! xD

Already one of the best

5

Already one of the best video game tabs.

Dude

5

I've been looking for this tab everywhere. THNX! :) Oh, to the guy who said it sounds like the halo theme, you must suck at playing guitar, because it sounds nothing like halo. LOSER!

SWEEPS!

5

excellent job

(No words)

5

This tab is the bomb! Adding the other guitar parts made it even better.