Ads

Staff Roll (Final Fantasy VII) Guitar Tab

Submitted: May 06, 2014 by JordanVS

5
Average: 5 (6 votes)
Download | Listen
Game: Final Fantasy VII
Composer(s): Nobuo Uematsu
Style: Arrangement, Fingerstyle
Series: Final Fantasy

AutoScroll: Slow | Medium | Fast
Staff Roll                                              
Credits Theme
Final Fantasy VII
Nobuo Uematsu
JordanVS                                                                       

-4/4
-Tempo = 122


     E  E  E  E  E  E  E  E     E  E  E  E  E  E  E  E     E  E  E  E  E  E  E  E   
E||--------------------------|--3-----------------------|--------------------------|
B||-----------4--3-----------|--------------------------|--3--1--3-----------1-----|
G||--------5--------5-----3--|--------3--2--------------|-----------2--0--2-----3--|
D||-----5--------------7-----|-----0--------5--4--5--4--|--1-----------------------|
A||--------------------------|--0-----------------------|--1-----------------------|
E||--3-----------------------|--------------------------|--------------------------|


  W                   Q    Q    S S E  Q       Q    Q    Q    Q       Q    Q    S S E  E  E   
-------------------|------------------------|----------------------|-------------------------|
-------------------|------------------------|--4---------6---------|-------------------------|
--2----------------|--6---------------------|----------------------|--0----------------------|
--1----------------|--5----5----5-5-5-------|--5----5----5----5----|--0----------------------|
--3----------------|--6----6----6-6-6-------|--6----6----6----6----|--2----------------------|
-------------------|------------------------|----------------------|--3----3----3-3-3-----3--|


  Q    E  S  S S S E  Q       Q    E  E  S S E  E  E     Q    E  S  S Q    Q     
---------------------------|--------------------------|-------------------------|
---------------------------|--0-----------------------|-------------------------|
--L------------------------|--0-------0---------------|-------------------------|
--L-------4h-5-7------4----|--0----------0------------|--L-------4h-5-7----4----|
--L------------------------|--------------------------|-------5------------5----|
--3------------3-3-3-------|--3----3-----3-3-3-----3--|--3------------3---------|


  Q    E  E  S S E  E  E     Q    E  S  S S S E  Q       Q    E  E  S S E  E  E   
--------------------------|---------------------------|--------------------------|
--0-----------------------|---------------------------|--1-----------------------|
--1-------1---------------|----------1h-2-4------1----|--2-------2---------------|
--2----------2------------|--L------------------------|--2----------2------------|
--------------------------|---------------------------|--0----0-----0-0-0-----0--|
--0----0-----0-0-0-----0--|--0------------0-0-0-------|--------------------------|


  Q    E  E  S S E  E  E     Q    Q    S S E  E  E     Q    Q    S S S S Q                         
--5-------0---------------|------------0------------|-------------------------|-------------------|
-------------1------------|----------------------1--|-------------------------|-------------------|
-----------------------2--|-------------------------|--2----------------------|-------------------|
--------------------------|--2----------------------|--2----------------------|-------------------|
--0----------0-0-0--------|--0----0----0-0-0-----0--|--0---------0-0-0-0-0----|-------------------|
--------------------------|-------------------------|-------------------------|-------------------|

Tempo = 70

    E  E  E  E  E  E  E  E     H        E  E  E  E     Q    E  Q    E  Q       Q    H.            
|---------------------------|-----------------1--0--|-----------------------|--------------------|
|---------------------1--3--|--1--------L-----------|--3----1-------1--3----|--1-----------------|
|*--2--0--2--3-----3--------|--2--------L-----------|--3-------3------------|--2----2------------|
|*--------------0-----------|--3--------L--3--------|-----------------------|--3-----------------|
|---3-----------------------|-----------------------|-----------------------|--------------------|
|---1-----------1-----------|--1--------L-----------|--1--------------------|--1-----------------|


  Q    E  E  E  E  E  E     E  E  Q    Q    Q       Q    E  E  E  E  E  E   
-------------------------|-----------------------|-------------------------|
-------------------------|-----------------------|-------------------------|
-------0--0--0--2--3--2--|--L--------------------|----------------------2--|
-------------------------|-----3--L--------------|-------3--2-----2--3-----|
--3----------4-----------|--------5----3----1----|--2----------0-----2-----|
--0----------0-----------|--1--------------------|--3----------------------|

1.			  2.
  H        E  E  E  E       Q    Q    E  E  E  E     E  E  E  E  E  E  E  E   
------------------------||------------------------|--------------------------|
-----------------1------||-------1----------------|--------------------------|
--0-----------------3--*||--0------------------0--|--2--0--2--0-----0--3--2--|
-----------------------*||------------0--2--3-----|--------------------------|
--3--------5--3---------||--3---------------------|--------------1-----------|
--0--------------0------||--0---------------0-----|--1-----------------------|


  E  E  E  E  E  E  E  E     E  E  E  E  E  E  E  E     E  E  E  E  E  E  E  E   
--------------------------|--------0--1-----1--------|--------------------------|
--------1-----------------|--1--3--------------1-----|--------1-----------------|
--0--------2--L-----------|-----------------------2--|--0--------2--L-----------|
-----2-----------------3--|--------------------------|-----2-----------------3--|
--3--------------0--3-----|--------------1-----------|--3--------------0--3-----|
--------------1-----------|--1-----------------------|--------------1-----------|


                                                        ^                        
  E  E  E  E  E  E  E  E     E  E  E  E  E  E  E  E     E  E  E  E  E  E  E  E   
--------------------------|-----------------------0--|--1-----1--0--------------|
--------------------------|--------1--------1--3-----|--3-----------3--2--3--2--|
--2--0--2--0-----0--3--2--|--0--------2--L-----------|--2--2--------------------|
--------------------------|-----2--------3-----------|--0-----------------------|
--------------1-----------|--3-----------------------|--------------------------|
--1-----------------------|--------------------------|--------------------------|


  ^                       ^                          ^                                              
  H        E  E  E  E     E  E  E  E  E  E  E  E     H        Q    Q       E  E  E  E  E  E  E  E   
--------------------0--|--1-----1--0--------------|---------------------|-----------0-----------0--|
--0-----------2--3-----|--3-----------3--2--3--2--|--0-------------0----|--1-----1-----------2-----|
--0--------------------|--2--2--------------------|--0--------2---------|-----0-----------2--------|
--0--------------------|--0-----------------------|--0------------------|--------------------------|
--2--------------------|--------------------------|--2------------------|--3-----------4-----------|
--3--------------------|--------------------------|--3------------------|--------------------------|


					   Tempo = 136
  E  E  E  E  H           W                   E  E  E  E  E  E   E   E   
-----------1--L--------|--L----------------|--5--5--5--6--6--6---8---8--|
--3-----3--------------|-------------------|--6--6--6--8--8--8--10--10--|
-----2-----------------|-------------------|----------------------------|
--0--------------------|-------------------|--0--0--0--0--0--0---0---0--|
-----------------------|-------------------|----------------------------|
-----------------------|-------------------|----------------------------|


                                                                           |--3--|   
   E  E  E  E  E  E  E  E     E  E  E  E  E  E  E  E     E  E  E  E  E  E  E  E  E   
---8--6--6--6--5--5--3--6--|--5--5--5--5--5--5--5--5--|--5--5--5--5--5--5--5--------|
--10--8--8--8--6--6--5-----|--6--6--6--6--6--6--6--6--|--6--6--6--6--6--6--6--------|
---------------------------|--------------------------|-----------------------------|
---0--0--0--0--0--0--0--0--|--0--0--0--0--0--0--0--0--|--0--0--0--0--0--0--0--------|
---------------------------|--------------------------|-----------------------7--8--|
---------------------------|--------------------------|-----------------------------|


  E  E  E  E  E  E   E   E      E  E  E  E  E  E  E   S  S     W                 
--5--5--5--6--6--6---8---8--|---8--6--6--6--5--5-----10-10-|--10----------------|
--6--6--6--8--8--8--10--10--|--10--8--8--8--6--6--8--------|--10----------------|
----------------------------|---------------------9--------|--10----------------|
--0--0--0--0--0--0---0---0--|---0--0--0--0--0--0--0---0--0-|---0----------------|
--0-------------------------|------------------------------|--------------------|
----------------------------|------------------------------|--------------------|


  W                   Q    E  E  Q    Q       Q    E  E  Q    Q       Q    E  E  Q    Q     
--L----------------|-----------------------|--2----------0---------|-----------------------|
--L----------------|------------------0----|-----------------------|------------------0----|
--L----------------|--0----------2----0----|--2----------0---------|-------0-----2----0----|
--L----------------|-------------0---------|-----------------------|-------------0---------|
-------------------|--2--------------------|-----------------------|-------2---------------|
-------------------|--3-------3-------3----|--0-------0-------0----|--3-------3-------3----|


  Q    Q    Q    Q       Q    E  E  Q    Q       Q    E  E  Q    Q       Q    E  E  Q    Q     
----------------------|-----------------------|--2----------0---------|-----------------------|
--3----1--------------|------------------0----|-----------------------|------------------0----|
--3----2----0----2----|--0----------2----0----|--2----------0---------|-------0-----2----0----|
--1---------1----3----|-------------0---------|-----------------------|-------------0---------|
----------------------|--2--------------------|-----------------------|-------2---------------|
------------1---------|--3-------3-------3----|--0-------0-------0----|--3-------3-------3----|


  Q    E  E  Q    Q       H        H           Q    Q    Q    Q       Q    Q    Q    Q     
-----------------------|--------------------|----------------------|----------------------|
--3----1---------------|--0-----------------|-------0----3----0----|----------------------|
--0----------0----2----|--------------------|-----------------0----|--2-------------------|
-------2---------------|--0--------4--------|--2---------4---------|--2----0--------------|
--3-------3-------3----|--2--------2--------|----------------------|------------3----2----|
-----------------------|--------------------|--0-------------------|--1---------1---------|


  Q    Q    Q    Q       Q    E  E  Q    Q       Q    E  E  Q    Q       Q    E  E  Q    Q     
----------------------|-----------------------|--5----------3---------|-----------------------|
----------------------|-------------1----3----|-----------------------|-------------1----3----|
--2----0--------------|--3---------------3----|--5----------3---------|-------3----------3----|
--4---------4----2----|--0----------3---------|-----------------------|-------0-----3---------|
--5---------5---------|--1-------1-------1----|-----------------------|--1-------1-------1----|
----------------------|-----------------------|--3-------3-------3----|-----------------------|


  Q    Q    Q    Q       Q    E  E  Q    Q       Q    E  E  Q    Q       Q     Q     Q    Q     
--1-------------------|-----------------------|--5----------3---------|------------------------|
--2----4---------1----|-------------1----3----|-----------------------|------------------------|
-------5----3----1----|--3---------------3----|--5----------3---------|-------------------0----|
------------4---------|--0----------3---------|-----------------------|-------(1)----3---------|
----------------------|--1-------1-------1----|-----------------------|--6---------------------|
--2---------4---------|-----------------------|--3-------3-------3----|------------------------|


  Q    Q    Q    Q       W                   W                   W                 
----------------------|-------------------|-------------------|-------------------|
----------------------|--0----------------|--0----------------|--1----------------|
--3----1----0----1----|--1----------------|--0----------------|--2----------------|
----------------------|--2----------------|-------------------|--0----------------|
--L-------------------|-------------------|--0----------------|-------------------|
----------------------|-------------------|-------------------|-------------------|

					
					Tempo = 100
                       ^                                                              
  H        H           W                   Q    Q    Q    Q       H        Q    Q     
--------------------|-------------------|-------1----3---------|--6--------5----3----|
--5--------4--------|--3----------------|--1--------------1----|--6--------5---------|
--4--------L--------|--4----------------|--2---------0---------|---------------------|
--5--------L--------|--2----------------|--3---------2---------|--0------------------|
--------------------|--3----------------|----------------------|-----------3---------|
--------------------|-------------------|----------------------|---------------------|


  Q    E  E  Q    Q       H        H           Q    Q    Q    Q       H        Q    Q     
--1----0--1--3---------|--1--------0--------|-------3----5---------|--8--------6----5----|
------------------3----|--1-----------------|--3--------------3----|---------------------|
--3----------0---------|--0-----------------|--3---------2---------|--7--------5---------|
-----------------------|--------------------|------------0---------|--5--------4---------|
--1----------2---------|--3-----------------|----------------------|---------------------|
-----------------------|--------------------|--3-------------------|---------------------|


  Q    E  E  Q    Q       H        H           E  E  E  E  E  E  E  E     E  E  E  E  E  E  E  E   
--3----2--5--3---------|--1--------0--------|--------1-----3-----------|--6-----------5-----3-----|
--3----------0----3----|-----------1--------|--1-----------------1-----|--------3-----------------|
--0---------------2----|--0-----------------|-----2-----2-----0-----0--|-----3-----3-----3-----3--|
-------------3---------|--------------------|--3-----------2-----------|--0-----------------------|
-----------------------|--3-----------------|--------------------------|--------------3-----------|
-----------------------|--------------------|--------------------------|--------------------------|


  E  E  E  E  E  E  E  E     E  E  E  E  E  E  E  E     E  E  E  E  E  E  E  E   
--1-----0--1--3-----------|--1-----------0-----------|--------3-----5-----------|
--------------------3-----|-----------1-----1--------|--3-----------------3-----|
-----3-----------0-----0--|--------0-----------0-----|-----3-----3-----2-----2--|
--------------------------|-----2-----------------2--|--------------0-----------|
--1-----------2-----------|--3-----------------------|--------------------------|
--------------------------|--------------------------|--3-----------------------|


  E  E  E  E  E  E  E  E     E  E  E  E  E  E  E  E     E  E  E  E  E  E  E  E   
--8-----------6-----5-----|--3-----2--5--3-----------|--5-----------3-----------|
--------3-----------------|-----3--------------3-----|-----------1-----------1--|
-----3-----3-----5-----5--|--0--------------0-----0--|--------0-----------0-----|
--5-----------4-----------|--------------3-----------|-----2-----------2--------|
--------------------------|--------------------------|--3-----------3-----------|
--------------------------|--------------------------|--------------------------|

*Coda
  E  E  E  E  Q    Q       Q    Q    Q    Q       Q    E  E  Q    Q       Q    Q    Q    Q     
------------------------|----------------------|-----------------------|----------------------|
--3----------------3----|--1-------------------|-----------------------|----------------------|
--3----------------3----|--2--------------2----|--3----3--2--0---------|--0----2----3----5----|
--------0--2--3----5----|-------3---------3----|--5----------0----4----|-------0----5----3----|
--1--3------------------|------------3---------|-------1--3-------0----|----------------------|
------------------------|----------------------|-----------------------|--3-------------------|


  H        H           Q    Q    Q    Q       H        Q    Q       Q    Q    Q    Q     
-----------0--------|--1-------------------|---------------------|----------------------|
--3-----------------|--1----1---------1----|----------------1----|----------------------|
--3--------3--------|-------2----2----2----|--3--------0----0----|--2-------------------|
--2-----------------|--3---------1---------|--3--------2---------|--3----1----0---------|
-----------3--------|-----------------3----|--1--------3---------|-----------------3----|
--------------------|----------------------|---------------------|----------------------|


  E  E  E  E  Q    Q       Q    Q    Q    Q       Q    E  E  Q    Q       Q    Q    Q    Q     
------------------------|----------------------|-----------------------|----------------------|
--3----------------3----|--1-------------------|-----------------------|-----------------1----|
--3----------------3----|--2--------------2----|--3----3--2--0---------|--0----2----3----2----|
--------0--2--3----5----|-------3---------3----|--5----1-----0----4----|-------3----1----0----|
--1--3------------------|------------3---------|------------------0----|--1-------------------|
------------------------|----------------------|-----------------------|--3-------------------|

											*Da Coda
  E  E  E  E  Q    Q       Q    Q    Q    Q       Q    E  E  Q    E  E     Q    Q    Q    Q     
------------------------|----------------------|------------------------|----------------------|
--4----------------4----|--3-------------------|------------------------|----------------------|
--5----------------5----|--3--------------3----|--5----5--6--5----5--6--|--5---------2----0----|
------------------------|--5-------------------|-------6-----8----6-----|--5----8----2---------|
-----------5--6----8----|-------5---------5----|--4---------------------|--7---------3---------|
--4--6--8---------------|------------6---------|------------------------|----------------------|


    Q    Q    Q    Q       H        Q    Q       Q    E  E  Q    Q       H        H         
|-----------------------|---------------------|-----------------------|--------------------|
|-----------------------|---------------------|-----------------------|--------------------|
|*------------0---------|--3--------2----0----|-------------0---------|--------------------|
|*-------3--------------|---------------------|--3----2--3-------0----|--3--------2--------|
|---3--------------3----|--5--------3---------|--1----------2---------|--3-----------------|
|---1---------0---------|---------------------|-----------------------|--------------------|

								    1.
  Q    Q    Q    Q       H        Q    Q       Q    E  E  Q    Q       H        H           
----------------------|---------------------|-----------------------|---------------------||
----------------------|--1------------------|-----------------------|---------------------||
-------0----2---------|-----------3----2----|--0-------2--0---------|--------------------*||
--0--------------0----|--0------------------|-------4----------0----|--3--------2--------*||
------------5---------|---------------------|------------------0----|--3------------------||
--3-------------------|--3--------2---------|--3----------1---------|---------------------||

2.     *D.S. al Coda *Segno
  H        H           Q    Q    Q    Q       H        Q    Q       E  E  E  E  E  E  E  E   
--------------------|----------------------|---------------------|--------------------------|
--------------------|----------------------|---------------------|--------------------------|
--2--------0--------|------------0---------|--3--------2----0----|--------------------------|
--3--------2--------|-------3--------------|--0------------------|--3-----------------------|
--3--------3--------|--3--------------3----|---------------------|--4--4--4--4--4--4--4--4--|
--------------------|--1-------------------|--L------------------|--------------------------|


  E  E  E  E  E  E  E  E     E  E  E  E  E  E  E  E     E  E  E  E  E  E  E  E   
--------------------------|--------------------------|--------------------------|
--------------------------|--------------------------|--------------2-----------|
--0-----------------------|--1-----------------------|--3-----------3-----------|
--1-----------------------|--3-----------------------|--5-----------------------|
--4--4--4--4--4--4--4--4--|--4--4--4--4--4--4--4--4--|--4--4--4--4--4--4--4--4--|
--------------------------|--------------------------|--------------------------|


  Q    Q    Q    Q       H        Q    Q       E  E  E  E  E  E  E  E     E  E  E  E  E  E  E  E   
----------------------|---------------------|--1-----------------------|--------------------------|
--1-------------------|-----------1---------|--2-----------------------|--4-----------------------|
------------0---------|--2--------2---------|--------------------------|--0-----------------------|
-------3--------------|----------------3----|--------------------------|--------------------------|
--3--------------3----|---------------------|--4--4--4--4--4--4--4--4--|--4--4--4--4--4--4--4--4--|
--1-------------------|--L------------------|--------------------------|--------------------------|


  E  E  E  E  E  E  E  E     E  E  E  E  E  E  E  E     E  E  E  E  E  E  E  E   
--------------------------|--3-----------6-----------|--5-----------------------|
--6-----------------------|--------------------------|--------------------------|
--3-----------------------|--3-----------6-----------|--5-----------------------|
--------------------------|--------------------------|--3-----3-----3-----3-----|
--4--4--4--4--4--4--4--4--|--4--4--4--4--4--4--4--4--|-----3-----3-----3-----3--|
--------------------------|--------------------------|--------------------------|


  E  E  E  E  E  E  E  E     E  E  E  E  E  E  E  E     E  E  E  E  E  E  E  E   
--L-----------6--5--6--3--|--5-----------------------|--L-----------6--5--6--3--|
--------------------------|--------------------------|--------------------------|
--L-----------6--5--6--3--|--5-----------------------|--L-----------6--5--6--3--|
--3-----3-----------------|--3-----3-----3-----3-----|--3-----3-----------------|
-----3-----3--------------|-----3-----3-----3-----3--|-----3-----3--------------|
--------------------------|--------------------------|--------------------------|


  E  E  E  E  E  E  E  E     E  E  E  E  Q     Q        Q    Q    H           W                  
--5-----------------------|--L-----------9----11----|--13------------------|-------------------||
--------------------------|--------------9----11----|--13------------------|-------------------||
--5-----------------------|--L----------------------|--14------------------|-------------------||
--3-----3-----3-----3-----|--3-----3----------------|-------------3--------|--L----------------||
-----3-----3-----3-----3--|-----3-----3-------------|----------------------|-------------------||
--------------------------|--------------9-----8----|--13---------1--------|--L----------------||




Duration Legend
---------------
W - whole
H - half
Q - quarter
E - 8th
S - 16th
T - 32nd
X - 64th
. - note dotted
|-n-|  - n-tuplets


Tablature Legend
----------------
L - tied note
h - hammer on
p - pull off
^ - brush up
v - brush down
Login or Register to remove this ad.

2 comments on Staff Roll

Justice has been served to this piece

5

Thank you...

Chocobo Rank Class S

So scarce a simulation settled so softly, so solid. Complete with regard to every detail. I thank you.