Ads

Prelude and Theme (Final Fantasy VII) Guitar Tab

Submitted: Apr 21, 2013 by

5
Average: 5 (3 votes)
Download | Listen
Game: Final Fantasy VII
Composer(s): Nobuo Uematsu
Style: 2 or more instruments, Arrangement, Artificial harmonics, Fingerstyle, Natural harmonics
Series: Final Fantasy

AutoScroll: Slow | Medium | Fast
Title: 		Prelude and Theme (Guitar Duet)
Game:  		Final Fantasy VII
Composed by: 	Nobuo Uematsu
Arrangment/Tab: Verses Mode

Please check out our YouTube channel for more info:

Final Fantasy VII Prelude and Theme


Guitar 1

E |-------|-------|-------|-------|--8----|----------|--8L---|-(8)---|--8----|
B |-------|-------|-------|-------|--8----|-<12>-----|-------|-------|--8----|
G |-------|-------|-------|-------|--9----|----<7>---|--5L---|-(5)---|--9----|
D |-------|-------|-------|-------|-------|----------|-------|-------|-------|
A |-------|-------|-------|-------|-------|----------|--0L---|-(0)---|-------|
E |-------|-------|-------|-------|-------|----------|-------|-------|-------|


--7--10---|--10-12s8L------|-(8)---|--5--------5----|-----5----|
--8-------|--0L-0L-0L------|-(0)---|--------6-------|--8-------|
--9-------|--9-------------|-------|-----5----------|----------|
----------|--10------------|-------|----------------|----------|
----------|--0L-0L-0L------|-(0)---|----------------|----------|
----------|----------------|-------|----------------|----------|


--7--------8s---|--10-15---|--13----11-10---|--8----|--15----13-11---|--10---|
--------8-------|----------|--13------------|-------|--15------------|-------|
-----7----------|----------|----------------|-------|----------------|-------|
----------------|----------|----------------|-------|----------------|-------|
----------------|----------|----------------|-------|----------------|-------|
----------------|----------|----------------|-------|----------------|-------|


--8L---|-(8)---|----|----------------|----------|----------------|
--8L---|-(8)---|----|----------------|--4--2----|----------------|
--9L---|-(9)---|----|-----------1----|----------|-----------1----|
-------|-------|----|--2-----4-------|--2--2----|-----2--4-------|
-------|-------|----|----------------|--4--4----|----------------|
-------|-------|----|----------------|----------|----------------|


----------------|----------------|----------|----------------|----------------|
----------------|----------------|--4--2----|----------------|----------------|
--4--2----------|-----------1----|----------|-----------1----|--4--2----------|
--------2--4----|--2-----4-------|--2--2----|-----2--4-------|--------2--4----|
----------------|----------------|--4--4----|----------------|----------------|
----------------|----------------|----------|----------------|----------------|


-------|----------------|-----------------------2----|
-------|--------0-------|--------------------3-------|
--1----|-----1--1--1----|-----------2-----2----------|
-------|-----2--2--2----|--4-----4-----4-------------|
-------|----------------|-----0----------------------|
-------|----------------|----------------------------|


--0-------------------------|--0-----------------4-------|--11-9----|
-----------2s-4-----4s-5----|--------------7-------------|--9--9----|
--------2-----4--4----------|-----------4----------------|--9--9----|
----------------------------|--------6--------6----------|----------|
-----0--------2-------------|----------------------------|----------|
----------------------------|-----0----------------------|----------|


--------------------4-------|--7--5----------|--------------------4-------|
--------5-----7-------------|--5----5---7----|--5-----------7-------------|
--------4-----4-------------|--6----5--------|-----------4----------------|
-----6-----6-----6----------|----------------|--------6--------6----------|
----------------------------|--0----0--------|----------------------------|
--0-------------------------|----------------|-----0----------------------|


--11-9----|--------------------4-------|--7-----5-------|--4--------2----|
--9--9----|--------5-----7-------------|--------5-------|--2--------2----|
--9--9----|--------4-----4-------------|--------6--6----|--2--------2----|
----------|-----6-----6-----6-----6----|----------------|----------------|
----------|----------------------------|-----0----------|----------------|
----------|--0-------------------------|----------------|----------------|


--0-------|--0-----------4-------------|----------------|
--2--4----|-----------------5-----5----|----------------|
--2--4----|-----------4--------4-------|----------------|
----------|--------6-------------------|----------------|
----------|----------------------------|-<7>------------|
----------|-----0----------------------|----------------|


--------------2-------------|--------------2-------------|
--------2--------2-----2----|--------2--------2-----2----|
-----2-----2--------2-------|-----2-----2--------2-------|
--4-------------------------|--4-------------------------|
----------------------------|----------------------------|
----------------------------|----------------------------|


-------------------------------|--11----------9----------------|
--------------------9----------|--------9-----------9----------|
--------9-----11---------------|--11----------9----------------|
-----9-----9-----9-----9-------|-----9-----9-----9-----9-------|
-------------------------------|-------------------------------|
--0----------------------------|--------------------------0----|


----------------------------|----------------------------|
--------4-----5-------------|--4-----------5-------------|
--------4-----6-----6-------|--4-----4-----6-----6-------|
-----7-----7-----7-----7----|-----7-----7-----7-----7----|
--0L------------------------|----------------------------|
----------------------------|----------------------------|


--------------------4-------|----------------------------|
--------4-----5-------------|--4-----5-------------------|
--------4-----4-------------|--4--------4----------------|
-----6-----6-----6-----6----|-----6----------------------|
----------------------------|--------------7-------------|
--0-------------------------|----------------------------|


----------------------------|----------------------------|
--------0-------------------|--------0-----2-------------|
--------1-----2-------------|--------1-----2-------------|
-----4-----4-----4-----4----|-----4-----4-----4-----4----|
--0L----------------0-------|--0L----------------0-------|
----------------------------|----------------------------|


----------------------------|----------------------------|
----------------------------|----------------------------|
--------6-----8-----9-------|--------9-----------8-------|
-----6-----6-----6-----6----|-----6-----6-----6-----6----|
----------------------------|----------------------------|
--0-------------------------|--9-----------7-------------|


-----------------------0----|----------------------------|
----------------------------|--------------10------------|
-----6--6-----8-----8-------|-----------9-----9----------|
-----7--7-----9-----9-------|--11----11----------11------|
--0--------0-----0----------|-----0-----------------0----|
----------------------------|----------------------------|


----------------------------|----------------------------|-------|-------|
-----------------------7----|--------9-----9-----7-------|-------|-------|
-----8--8-----9-----9-------|--8-------------------------|-------|-------|
-----9--9-----9-----9-------|--9-------------------------|-------|--2----|
----------------------------|----------------------------|--2----|--4----|
--7--------7-----7----------|-----7----------------------|--0----|-------|


-------|----------|-------|-------|-------|----------|----------------|
-------|----------|-------|-------|-------|----------|----------------|
-------|----------|-------|-------|-------|----------|----------------|
-------|--2--2----|-------|--2----|-------|--2--2----|----------------|
--2----|--0--3----|--2----|--4----|--2----|--0-------|-----------4----|
--0----|----------|--0----|-------|--0----|-----4----|--2-------------|


----------|--12----9-------------------|----------------------------|
----------|-----------9--12----9-------|----------------------------|
----------|-----9-----------11----9----|--8--------------------8s---|
----------|----------------------------|----------------------------|
--2--6s---|----------------------------|----------------------------|
----------|----------------------------|----------------------------|


--------------5-------------|----------------------------|
--------7--------7-----7----|--------7-----5-------------|
--6--------6--------6-------|--------------------8-------|
-----7----------------------|-----7-----7--7--7-----7----|
----------------------------|----------------------------|
----------------------------|--5-----------7-------------|


--0-----------------4-------|-<12>--|-(12)--||
--------------5--------5----|-------|-------||
-----------4-----4----------|-------|-------||
--------6-------------------|-------|-------||
----------------------------|-------|-------||
-----0----------------------|-------|-------||



Guitar 2

E |--------------------0-------|--8-----0-------------------|
B |--------------1--3-----8----|-----8-----3--1-------------|
G |-----------0----------------|-----------------0----------|
D |-----0--2-------------------|--------------------2--0----|
A |--3-------------------------|----------------------------|
E |----------------------------|----------------------------|


-----------------------0----|--5--0----------------------|
-----------------0--1-------|--------1--0----------------|
--------------2-------------|--------------2-------------|
-----------2----------------|-----------------2----------|
--0--2--3-------------------|--------------------3--2----|
----------------------------|----------------------------|


--------------------0-------|--8-----0-------------------|
--------------1--3-----8----|-----8-----3--1-------------|
-----------0----------------|-----------------0----------|
-----0--2-------------------|--------------------2--0----|
--3-------------------------|----------------------------|
----------------------------|----------------------------|


-----------------------0----|--5--0----------------------|
-----------------0--1-------|--------1--0----------------|
--------------2-------------|--------------2-------------|
-----------2----------------|-----------------2----------|
--0--2--3-------------------|--------------------3--2----|
----------------------------|----------------------------|


--------------------0-------|--8-----0-------------------|
--------------1--3-----8----|-----8-----3--1-------------|
-----------0----------------|-----------------0----------|
-----0--2-------------------|--------------------2--0----|
--3-------------------------|----------------------------|
----------------------------|----------------------------|


----------------------------|--5-------------------------|
-----------------0-----5----|-----5-----0----------------|
--------------2-----5-------|--------5-----2-------------|
-----------2----------------|-----------------2----------|
--0--2--3-------------------|--------------------3--2----|
----------------------------|----------------------------|


----------------------------|--1-------------------------|
-----------------------1----|-----1----------------------|
-----------------0--2-------|--------2--0----------------|
--------------3-------------|--------------3--0----------|
--------0--3----------------|--------------------3--0----|
--1--3----------------------|----------------------------|


----------------------------|--3-------------------------|
--------------------0--3----|-----3--0-------------------|
--------------0--2----------|-----------2--0-------------|
-----------0----------------|-----------------0----------|
-----0--2-------------------|--------------------2--0----|
--3-------------------------|----------------------------|


-----------------------3----|--4--3----------------------|
-----------------1--4-------|--------4--1----------------|
-----------0--1-------------|--------------1--0----------|
--------1-------------------|--------------------1-------|
-----3----------------------|-----------------------3----|
--4-------------------------|----------------------------|


----------------------------|--6--5----------------------|
--------------------3--6----|--------6--3----------------|
--------------3--5----------|--------------3--2----------|
--------0--3----------------|--------------------3--0----|
--1--3----------------------|----------------------------|
----------------------------|----------------------------|


--------------------0-------|--8----|-(8)---|-------|----------|-------|
--------------1--3-----8----|-------|-------|-------|----------|-------|
-----------0----------------|-------|-------|-------|----------|-------|
-----0--2-------------------|-------|-------|-------|--2--2----|-------|
--3-------------------------|-------|-------|--2----|--4--4----|--2----|
----------------------------|-------|-------|--0----|----------|--0----|


----------|-------|----------|-------|-------|----------|----------------|
----------|-------|----------|-------|-------|----------|----------------|
----------|-------|----------|-------|--2----|----------|----------------|
--2-------|-------|--2--2----|-------|--2----|-----1----|----------------|
--0--3----|--2----|--4--4----|--2----|--0----|--2-------|--4-------------|
-----5----|--0----|----------|--0----|-------|--4-------|--2-------------|


-------|-------|----------------------------|----------------------------|
-------|-------|--0-----------0-------------|--4-----------5-------------|
-------|-------|-----------1-----1----------|-----6-----6-----6----------|
-------|-------|--------2-----------2-------|--------6-----------6-------|
-------|-------|-----2----------------------|--4-------------------------|
-------|-------|--0-------------------------|----------------------------|


----------------------------|----------------------------|
--0-----------0-------------|--0-----------1-------------|
-----------1-----1----------|-----2-----2-----2-----2----|
--------2-----------2-------|--------2-----------2-------|
-----2----------------------|--0-----------3-------------|
--0-------------------------|----------------------------|


----------------------------|----------------------------|
--0-----------0-------------|--4-----------5-------------|
-----------1-----1----------|-----6-----6-----6----------|
--------2-----------2-------|--------6-----------6-------|
-----2----------------------|--4-------------------------|
--0-------------------------|----------------------------|


----------------------------|----------------------------|
--0-----------0-------------|--0-----------0-------------|
-----------1-----1----------|-----2-----2-----2----------|
--------2-----------2-------|--------2-----------2-------|
-----2----------------------|--0-------------------------|
--0-------------------------|----------------------------|


----------------------------|--0-------------------------|
--------------0-------------|--------------4-------------|
-----------2-----2----------|-----2-----2-----4-----4----|
--------2-----------2-------|--------2-----------4-------|
-----0-----------------0----|--0-----------2-------------|
--2-------------------------|----------------------------|


----------------------------|-----4--5--4----|--4--------4--5-------------|
--------------0-------------|----------------|-----7--7-------------------|
-----------1-----1-----1----|----------------|----------------------------|
--------2-----------2-------|----------------|----------------------------|
-----2----------------------|----------------|----------------------------|
--0-------------------------|--0-------------|----------------------------|


-(5)----------------4-------|--------4-------------------|-(4)---|
-----------------------7----|--5--7----------------------|-------|
----------------------------|----------------------------|-------|
----------------------------|----------------------------|-------|
----------------------------|----------------------------|-------|
----------------------------|----------------------------|-------|


-----------9----------------|----------------|--4--------4----|
--12-10-12------------------|--------5--7----|--------5-------|
--------------9-------------|-(9)------------|----------------|
----------------------------|----------------|----------------|
----------------------------|----------------|----------------|
----------------------------|----------------|----------------|


-----------------4--5--4----|--4--------4--5-------------|
--4-----5-------------------|-----7--7-------------------|
----------------------------|----------------------------|
----------------------------|----------------------------|
----------------------------|----------------------------|
----------------------------|----------------------------|


-(5)----------------4-------|--------4-------------------|-----------4----|
-----------------------7----|--5--7----------------------|--------4--4----|
----------------------------|----------------------------|--------4--4----|
----------------------------|----------------------------|--------6-------|
----------------------------|----------------------------|----------------|
----------------------------|----------------------------|----------------|


--12-11-11-9--9-------------|-(9)-------------9--11-9----|
--14-12-12-10-10------------|-(10)-----------------------|
----------------------------|----------------------------|
----------------------------|----------------------------|
----------------------------|----------------------------|
----------------------------|----------------------------|


--7-----------------4-----5-----------------7--5----|--4-------------|
--------7-----7-------------------------------------|-----5--5--4----|
--------------------4-----6-------------------------|----------------|
--------7-----7-------------------------------------|----------------|
----------------------------------------------------|----------------|
----------------------------------------------------|----------------|

[Artificial Harmonics]
----------------|----------|----------------|----------------|----------------|
----------------|-<4><2>---|----------------|-<0>------------|----------------|
----------<1>---|----------|----------<1>---|----<2>---------|----------<1>---|
-<2>---<4>------|----------|----<2><4>------|-------<2><4>---|-<2>---<4>------|
----------------|----------|----------------|----------------|----------------|
----------------|----------|----------------|----------------|----------------|


----------|----------------|----------------|----------------|----------|
-<4><2>---|----------------|-<0>------------|----------------|----------|
----------|----------<1>---|----<2>---------|-<1>------------|----------|
----------|----<2><4>------|-------<2>------|----------<4>---|----------|
----------|----------------|----------<4>---|----------------|-<2><1>---|
----------|----------------|----------------|----------------|----------|


----------------------------|-----4--5--4----|--4--2--2--4--5-------------|
--------------0-------------|----------------|--2-------------------------|
--------1--------1-----1----|----------------|--2-------------------------|
--2--------2--------2-------|----------------|----------------------------|
-----2----------------------|----------------|----------------------------|
--0-------------------------|--0-------------|--2-------------------------|


----------------------------|----------------------------|-------|-------||
--------5-----5-----4-------|--------------0-------------|-------|-------||
-----------------4-----4----|--------1--------1-----1----|-------|-------||
-----2-----2--------4-------|-----------2--------2-------|-------|-------||
--0-----------2-------------|-----2----------------------|-------|-------||
----------------------------|--0-------------------------|--0----|-(0)---||
Login or Register to remove this ad.

1 comment on Prelude and Theme

How did everyone miss this?

5

How did everyone miss this? Pretty sweet duet, guys.

Folks!

https://www.youtube.com/watch?v=EqyRwdyi9bE