Ads

Prelude (Final Fantasy VII) Guitar Tab

Submitted: May 21, 2010 by Daugreano

4
Average: 4 (1 vote)
Download | Listen
Game: Final Fantasy VII
Composer(s): Nobuo Uematsu
Style: Transcription
Series: Final Fantasy

AutoScroll: Slow | Medium | Fast
Song: Prelude
Game: Final Fantasy VII
Composer: Nobuo Uematsu
Tabbed by: Daugreano

16th notes throughout...repeat each measure once before moving on to the next.

Electric Guitar:
                                                                                                 
E|-------------8--10-12-15-20-15-12-10-8-----------|----------------7--8--12-17-12-8--7--------------|
B|----------8-----------------------------8--------|-------------10----------------------10----------|
G|----7--9-----------------------------------9--7--|----------9-----------------------------9--------|
D|-10----------------------------------------------|-7--9--10----------------------------------10-9--|
A|-------------------------------------------------|-------------------------------------------------|
E|-------------------------------------------------|-------------------------------------------------|


E|----------------8--13-15-17-15-13-8--------------|-------------7--10-15-17-19-17-15-10-7-----------|
B|----------8--10----------------------10-8--------|-------8--10----------------------------10-8-----|
G|-------10----------------------------------10----|----7-----------------------------------------7--|
D|-7--10----------------------------------------10-|-9-----------------------------------------------|
A|-------------------------------------------------|-------------------------------------------------|
E|-------------------------------------------------|-------------------------------------------------|


E|-------------8--10-12-15-20-15-12-10-8-----------|----------------7--8--12-17-12-8--7--------------|
B|----------8-----------------------------8--------|-------------10----------------------10----------|
G|----7--9-----------------------------------9--7--|----------9-----------------------------9--------|
D|-10----------------------------------------------|-7--9--10----------------------------------10-9--|
A|-------------------------------------------------|-------------------------------------------------|
E|-------------------------------------------------|-------------------------------------------------|


E|----------------8--13-15-17-15-13-8--------------|-------------7--10-15-17-19-17-15-10-7-----------|
B|----------8--10----------------------10-8--------|-------8--10----------------------------10-8-----|
G|-------10----------------------------------10----|----7-----------------------------------------7--|
D|-7--10----------------------------------------10-|-9-----------------------------------------------|
A|-------------------------------------------------|-------------------------------------------------|
E|-------------------------------------------------|-------------------------------------------------|


E|-------------------11-15-16-15-11----------------|----------------10-13-17-18-17-13-10-------------|
B|----------------13----------------13-------------|----------10-11----------------------11-10-------|
G|----------12-13----------------------13-12-------|----7--10----------------------------------10-7--|
D|----10-13----------------------------------13-10-|-8-----------------------------------------------|
A|-11----------------------------------------------|-------------------------------------------------|
E|-------------------------------------------------|-------------------------------------------------|


E|-------------8--10-12-15-20-15-12-10-8-----------|
B|----------8-----------------------------8--------|
G|----7--9-----------------------------------9--7--|
D|-10----------------------------------------------|
A|-------------------------------------------------|
E|-------------------------------------------------|



Login or Register to remove this ad.