Ads

Opening Theme (Final Fantasy VII) Bass/Guitar Tab

Submitted: Dec 18, 2012 by hashel (Last updated: Dec 19, 2012)

5
Average: 5 (1 vote)
Download | Listen
Game: Final Fantasy VII
Composer(s): Nobuo Uematsu
Style: 2 or more instruments, Transcription
Series: Final Fantasy

AutoScroll: Slow | Medium | Fast
Title: Opening
Artist: Nobuo Uematsu
Album: FF7 OST
Music: Nobuo Uematsu
Copyright: Squaresoft
Tabber: Hashel05
Tempo = 100

Melody


E|--------|--------|--------|--------|--------|-12--------11----|-11-----|-10--------9----7----|
B|--------|--------|--------|--------|--------|------12---------|--------|------10-------------|
G|--------|--------|--------|--------|--------|-----------------|--------|---------------------|
D|--------|--------|--------|--------|--------|-----------------|--------|---------------------|
A|--------|--------|--------|--------|--------|-----------------|--------|---------------------|
E|--------|--------|--------|--------|--------|-----------------|--------|---------------------|


E|-7------|-----------------|--------|-----------------|--------|--------|--------|
B|--------|-5---------------|--------|-----------------|--------|--------|--------|
G|--------|-----------------|--------|-9---------7-----|-7------|-7------|-7------|
D|--------|------7----9-----|-9------|------7----------|--------|--------|--------|
A|--------|-----------------|--------|-----------------|--------|--------|--------|
E|--------|-----------------|--------|-----------------|--------|--------|--------|


E|--------|--------|--------|--------|--------------------------|-----------------|
B|--------|--------|--------|--------|--------------------------|-9---------------|
G|-7------|-7------|--------|-9------|-9--------8--9--11---8----|-------9---4-----|
D|--------|--------|--------|--------|--------------------------|-----------------|
A|--------|--------|--------|--------|--------------------------|-----------------|
E|--------|--------|--------|--------|--------------------------|-----------------|


E|-------11-12-14---11---|-16----13--------|-----------------------|-----------------|
B|-----------------------|-----------14----|-------9--10-12---9----|-13----10--------|
G|-----------------------|-----------------|-----------------------|-----------9-----|
D|-----------------------|-----------------|-----------------------|-----------------|
A|-----------------------|-----------------|-----------------------|-----------------|
E|-----------------------|-----------------|-----------------------|-----------------|


E|-17------------------|-----------------|-12------------------|---------------------|
B|-------17--13--------|-----------------|-------13------------|---------------------|
G|-----------------9---|-----------------|-----------14--------|---------------------|
D|---------------------|-10----7---------|-----------------14--|---------------------|
A|---------------------|-----------7-----|---------------------|-15------------------|
E|---------------------|-----------------|---------------------|-------17--12----8---|


E|--------|--------|--------|
B|--------|--------|--------|
G|--------|--------|--------|
D|--------|--------|--------|
A|--------|--------|--------|
E|-5------|-5------|--------|


Bass


G|--------|--------|--------|--------|--------|--------|--------|--------|--------|
D|--------|--------|--------|--------|--------|--------|--------|--------|--------|
A|--------|--------|--------|--------|--------|--------|--------|--------|--------|
E|--------|--------|--------|--------|--------|--------|--------|--------|--------|


G|--------|--------|--------|--------|--------|--------|--------|--------|--------|
D|--------|--------|--------|--------|--------|--------|--------|--------|--------|
A|--------|--------|--------|--------|--------|--------|--------|--------|--------|
E|--------|--------|--------|--------|--------|--------|--------|--------|--------|


G|-------------------------------------------------|-------------------------------------------------|
D|-2--2--2--2--2--2--2--2--2--2--2--2--2--2--2--2--|-2--2--2--2--2--2--2--2--2--2--2--2--2--2--2--2--|
A|-------------------------------------------------|-------------------------------------------------|
E|-------------------------------------------------|-------------------------------------------------|


G|-------------------------------------------------|-------------------------------------------------|
D|-2--2--2--2--2--2--2--2--2--2--2--2--2--2--2--2--|-2--2--2--2--2--2--2--2--2--2--2--2--2--2--2--2--|
A|-------------------------------------------------|-------------------------------------------------|
E|-------------------------------------------------|-------------------------------------------------|


G|-------------------------------------------------|-------------------------------------------------|
D|-------------------------------------------------|-------------------------------------------------|
A|-4--4--4--4--4--4--4--4--4--4--4--4--4--4--4--4--|-4--4--4--4--4--4--4--4--4--4--4--4--4--4--4--4--|
E|-------------------------------------------------|-------------------------------------------------|


G|-------------------------------------------------|-------------------------------------------------|
D|-------------------------------------------------|-------------------------------------------------|
A|-0--0--0--0--0--0--0--0--0--0--0--0--0--0--0--0--|-0--0--0--0--0--0--0--0--0--0--0--0--0--0--0--0--|
E|-------------------------------------------------|-------------------------------------------------|


G|-------------------------------------------------|-------------------------------------------------|
D|-------------------------------------------------|-------------------------------------------------|
A|-0--0--0--0--0--0--0--0--0--0--0--0--0--0--0--0--|-0--0--0--0--0--0--0--0--0--0--0--0--0--0--0--0--|
E|-------------------------------------------------|-------------------------------------------------|


G|-------------------------------------------------|-------------------------------------------------|
D|-------------------------------------------------|-------------------------------------------------|
A|-0--0--0--0--0--0--0--0--0--0--0--0--0--0--0--0--|-0--0--0--0--0--0--0--0--0--0--0--0--0--0--0--0--|
E|-------------------------------------------------|-------------------------------------------------|


G|--------|--------|
D|--------|--------|
A|-0------|--------|
E|--------|--------|

Login or Register to remove this ad.