Ads

One Winged Angel (Final Fantasy VII) Guitar Tab

Submitted: Apr 03, 2014 by TheDoomOfAllFires (Last updated: May 24, 2014)

5
Average: 5 (9 votes)
Download | Listen
Game: Final Fantasy VII
Composer(s): Nobuo Uematsu
Style: Arrangement, Fingerstyle
Series: Final Fantasy

AutoScroll: Slow | Medium | Fast
"One Winged Angel" - Final Fantasy VII
Composer : Nobuo Uematsu
Arrangement : TheDoomOfAllFires
Inspired by Lonlonjp's arrangement
Tuning : Standard EADGBE
BPM : 120

                                     

     Q    Q    Q    Q       Q    Q    Q    Q       E  E  S  S E  E  E  E   E   
E||----------------------|----------------------|-----0--1p-0----0-----2p--0--|
B||----------------------|----------------------|--4----------4-----4---------|
G||-------3---------3----|-------3---------3----|--0-----0-------0-----0------|
D||--2----2----2----2----|--2----2----2----2----|-----------------------------|
A||--1---------1---------|--1---------1---------|-----------------------------|
E||--0----0----0----0----|--0----0----0----0----|--0-----0-------0-----0------|


  E  E  S  S E  E  E  E   E     Q    Q    Q    Q       Q    Q    Q    Q     
-----0--1p-0----0-----2p--0--|----------------------|----------------------|
--4----------4-----4---------|----------------------|----------------------|
--0-----0-------0-----0------|-------3---------3----|-------3---------3----|
-----------------------------|--2----2----2----2----|--2----2----2----2----|
-----------------------------|--1---------1---------|--1---------1---------|
--0-----0-------0-----0------|--0----0----0----0----|--0----0----0----0----|


   E  E  E  E  E  E  E  E     E  E  E  E  E  E  E  E     Q    Q    Q    Q     
--/7--6--5--3--7--6--5--3--|--7--6--5--3--2--0--------|----------------------|
---------------------------|--------------------4--1--|----------------------|
---------------------------|--------------------------|-------3---------3----|
---------------------------|--------------------------|--2----2----2----2----|
---------------------------|--------------------------|--1---------1---------|
---0-----0-----0-----0-----|--0-----0-----0-----0-----|--0----0----0----0----|


     ^                                            
  E  E  E  E  Q    E  E     E  E  Q    Q    Q     
-----3-----0----------0--|-----0--2--------------|
-----0-----0-------------|--4----------1----L----|
-----0-----0-------------|--0-----0----0----L----|
-----2-------------------|-------------2----L----|
-------------------------|-----------------------|
--0-----0-----0----0-----|--0-----0----0----0----|


  E  S  S  E  S  S  Q    Q       Q    Q    E  S  S  E  E   
-----0h-6p-5--0h-6p-5----6----|--6------------0h-6p-5--6--|
-------------------------5----|--5------------------------|
-----0--L--L--0--L--L---------|--0------------0-----------|
------------------------------|---------------------------|
------------------------------|---------------------------|
--0--------0--------0----0----|--0----0----0--------0-----|


                              |--3--|       |--3--|   
  Q    Q    Q    Q       Q    E  E  E  Q    E  E  E   
--6-------------------|------------------------------|
--5-------------------|---------------------0--0--0--|
--0-------------------|-------0--0--0--2----0--------|
----------------------|--4---------------------------|
----------------------|--2-------------2-------------|
--0----0----0----0----|--0----0--------0----0--------|


       |--3--|       |--3--|          |--3--|       |--3--|   
  Q    E  E  E  Q    E  E  E     Q    E  E  E  Q    E  E  E   
------------------------------|------------------------------|
--1----0--0--0-------0--0--0--|--2----0--0--0--3----0--0--0--|
--0----0--------3----0--------|--0----0--------0----0--------|
--2-------------1-------------|--2-------------0-------------|
------------------------------|------------------------------|
--0----0--------0----0--------|--0----0--------0----0--------|


                                       ^ v                  
       |--3--|       |--3--|                                
  Q    E  E  E  Q    E  E  E     S S S S Q    Q    E  S  S  
--0---------------------------|--------2-0-----------------|
--0----0--0--0-------0--0--0--|--------0-0------------2h-4-|
--0-------------3-------------|--------0-0-----------------|
-------2--------4----1--------|------2---------------------|
------------------------------|----2-----------------------|
--0----0--------0----0--------|--0-------0----0----0-------|


  E  E  E  E  E  E  E  E     E  E  E  E  E  E  E  E   
--0--2--0-----------------|--------------------------|
-----------4--2--1--------|--3-----------------------|
--0-----0-----0-----3--1--|-----------2--1-----6--5--|
--------------------------|--0--------------1--------|
--------------------------|-----0--1-----3--------0--|
--0-----0-----0-----0-----|--------------------6-----|


  E  E  E  E  E  E  E  E     E  E  E  E  E  Q    Q    Q    Q     
-----------------3--2-----|-----6--5--------9-------------------|
--------4--3-----------2--|--3--------5--6----------------------|
--0--1--------2-----------|-------------------------------------|
-----3-----0-----1--0-----|-------------------------------------|
--------------------------|--------0----------------------------|
--------------------------|--3-----------6--7----7----7----7----|


  Q    Q    Q    Q       E  E  E  E  E  E  E  E     E  E  E  E  E  E  E  E   
--9-------------------|-----------4--7--4--------|-----------4--7--4--------|
----------------------|--0-----6-----------6-----|--0-----6-----------6-----|
----------------------|-----7-----------------7--|-----7-----------------7--|
----------------------|--0-----0-----0-----0-----|--0-----0-----0-----0-----|
----------------------|--------------------------|--------------------------|
--7----7----7----7----|--------------------------|--------------------------|


  Q    Q    Q    Q       Q    Q    Q    Q       Q    Q    Q    Q     
------------5---------|------------3---------|------------5---------|
------------6---------|------------1---------|------------5---------|
--2----2--------------|--0----0--------------|--2----2--------------|
--0----0----0----0----|----------------------|----------------------|
----------------------|--3----3----3----3----|--4----4----4----4----|
----------------------|----------------------|----------------------|


  Q    Q    Q    Q       Q    Q     Q    Q       Q    Q    Q    Q     
------------8---------|------------10---------|------------6---------|
------------5---------|--3----3----10---------|------------4---------|
--5----5--------------|-----------------------|----------------------|
----------------------|--0----0-----0----0----|--8----8--------------|
--3----3--------------|-----------------------|--6----6----6----6----|
------------8----8----|-----------------------|----------------------|


  Q    Q    Q    Q       Q    Q     Q    Q       E  E  E  E  E  E  E  E   
------------5---------|------------11---------|--5-----5-----5--4--5-----|
------------6---------|--4----4-----8---------|--6-----6-----6--6--6-----|
--2----2--------------|-----------------------|--7-----7-----7--7--7-----|
--0----0----0----0----|-----------------------|--0--0--0--0--0--0--0--0--|
----------------------|--3----3---------------|--------------------------|
----------------------|-------------8----8----|--------------------------|


  E  E  Q    E  E  Q       E  E  E  E  E  E  E  E     E  E  Q    E  E  Q     
--5--5--6----5--5--6----|--5-----5-----5--4--5-----|--5--5--6----5--5--6----|
--6--6--5----6--6--5----|--6-----6-----6--6--6-----|--6--6--5----6--6--5----|
--7--7--6----7--7--6----|--7-----7-----7--7--7-----|--7--7--6----7--7--6----|
--0----------0----------|--0--0--0--0--0--0--0--0--|--0----------0----------|
--------4----------4----|--------------------------|--------4----------4----|
------------------------|--------------------------|------------------------|


   E   E   Q    E  E  E  E     E  E  E  E  Q    E  E   
--13--13--10-------5--5--5--|--4--4--6--6--5----4--6--|
--10--10--10-------6--6--6--|--6--6--6--6--6----6-----|
-------------------7--7--7--|--7--7--7--7--7----7-----|
---0-------0----0-----0-----|--0-----0-----0----0-----|
----------------------------|-------------------------|
----------------------------|-------------------------|


   E   E   Q    E  E  E  E     E  E  E  E  Q    E  E   
--13--13--10-------5--5--5--|--4--4--6--6--5----4--6--|
--10--10--10-------6--6--6--|--6--6--6--6--6----6-----|
-------------------7--7--7--|--7--7--7--7--7----7-----|
---0-------0----0-----0-----|--0-----0-----0----0-----|
----------------------------|-------------------------|
----------------------------|-------------------------|


  E  E  E  E  E  E  E  E     E  E  Q    E  E  Q       E  E  E  E  E  E  E  E   
--5-----5-----5--4--5-----|--5--5--6----5--5--6----|--5-----5-----5--4--5-----|
--6-----6-----6--6--6-----|--6--6--5----6--6--5----|--6-----6-----6--6--6-----|
--7-----7-----7--7--7-----|--7--7--6----7--7--6----|--7-----7-----7--7--7-----|
--0--0--0--0--0--0--0--0--|--0----------0----------|--0--0--0--0--0--0--0--0--|
--------------------------|--------4----------4----|--------------------------|
--------------------------|------------------------|--------------------------|


                                              |--3--|                           
  E  E  Q    E  E  Q        E   E   Q    Q    E  E  E     Q    Q    E  E  Q     
--5--5--6----5--5--6----|--13--13--10---------5--5--3--|--1--------------------|
--6--6--5----6--6--5----|--10--10--10---------6--6-----|--3----2----3----------|
--7--7--6----7--7--6----|---------------------7--------|-------2----------2----|
--0----------0----------|---0-------0----0-------------|--0---------0-----0----|
--------4----------4----|------------------------------|-------0-------0-------|
------------------------|------------------------------|-----------------------|


                     |--3--|                          
   E   E   Q    Q    E  E  E     Q    Q    Q    Q     
--13--13--10---------5--5--4--|--5-------------------|
--10--10--10---------6--6-----|----------------------|
---------------------7--------|----------------------|
---0-------0----0----0--------|--0----0----0----0----|
------------------------------|----------------------|
------------------------------|----------------------|


  E  E  E  E  E  E  E  E     E  E  Q    Q    E  E     E  E  E  E  E  E  E  E   
--------0-----------------|------------------------|--------0-----0--0--------|
--------1-----4--4--6-----|------------------------|--------1-----1-----4-----|
--------------5-----------|------------------------|--------------------5-----|
-----2-----2-----------2--|-----2---------------2--|-----2-----2-----------2--|
--0-----0-----0-----0-----|--0-----0----0----0-----|--0-----0-----0-----0-----|
--------------------------|------------------------|--------------------------|


  Q    Q    E  E  E  E     E  E  E  E  E  E  E  E     Q    Q    E  E  E  E   
------------------------|--------0-----------------|------------------------|
------------------------|--------1-----4--4--6-----|------------------------|
------------------------|--------------5-----------|------------------------|
---------------2-----2--|-----2-----2-----------2--|---------------2-----2--|
--0----0----0-----0-----|--0-----0-----0-----0-----|--0----0----0-----0-----|
------------------------|--------------------------|------------------------|


  E  E  E  E  E  E  Q       Q    Q    E  E  Q       E  E  E  E  E  E  E  E   
--------0-----0--0-------|-----------------------|--5-----5-----5--4--5-----|
--------1-----1-----4----|-----------------------|--6-----6-----6--6--6-----|
--------------------5----|-----------------------|--7-----7-----7--7--7-----|
-----2-----2-------------|---------------2-------|--0--0--0--0--0--0--0--0--|
--0-----0-----0-----0----|--0----0----0-----0----|--------------------------|
-------------------------|-----------------------|--------------------------|


  E  E  Q    E  E  Q       E  E  E  E  E  E  E  E     E  E  Q    E  E  Q     
--5--5--6----5--5--6----|--5-----5-----5--4--5-----|--5--5--6----5--5--6----|
--6--6--5----6--6--5----|--6-----6-----6--6--6-----|--6--6--5----6--6--5----|
--7--7--6----7--7--6----|--7-----7-----7--7--7-----|--7--7--6----7--7--6----|
--0----------0----------|--0--0--0--0--0--0--0--0--|--0----------0----------|
--------4----------4----|--------------------------|--------4----------4----|
------------------------|--------------------------|------------------------|


   E   E   Q    E  E  E  E     E  E  E  E  E  E  E  E   
--13--13--10-------8-----7--|-----5-----3-----1-----0--|
--10--10--10----------------|--------------------------|
----------------------------|--------------------------|
---0-------0----0-----0-----|--0-----0-----0-----0-----|
----------------------------|--------------------------|
----------------------------|--------------------------|


   E   E   Q    Q    Q        Q    Q    Q    Q       E  E  E  E  E  E  E  E   
--13--13--10--------------|--10----5----1---------|--------------0-----3--0--|
--10--10--10--------------|------------------3----|--------0--------0--------|
--------------------------|-----------------------|-----------0--------------|
---0-------0----0----0----|---0---------2----3----|-----2--------------------|
--------------------------|--------6--------------|--------------------------|
--------------------------|-----------------------|--0-----0-----0-----0-----|


  E  E  E  E  E  E  E  E     E  E  E  E  E  E  E  E   
--6--3--------------------|--------8--7--6--7--------|
--------------------------|--------------------------|
-----------2-----0-----2--|--------8-----------------|
--------4-----2-----4-----|-----------------------9--|
--------------------------|-----9--------------------|
--0-----0-----0-----0-----|--7-----7-----7-----7-----|


              |----3----|                                                   
  Q    E  E   Q    Q    Q       Q    Q    Q    Q       Q    Q    Q    Q     
-------8--7--10----9----8----|--7-------------------|----------------------|
-----------------------------|----------------------|----------------------|
-------8-----10----9----8----|--8-------------------|----------------------|
-----------------------------|----------------------|----------------------|
-----------------------------|----------------------|----------------------|
--7----7------7---------7----|--7----7----7----7----|--7----7----7----7----|


  E  E  E  E  E  E  E  E     E  E  E  E  E  E  E  E   
--------------0-----3--0--|--6--3--------------------|
--------0--------0--------|--------------------------|
--0--------0--------------|-----------2-----0-----2--|
-----2--------------------|--------4-----2-----4-----|
--------------------------|--------------------------|
--0-----0-----0-----0-----|--0-----0-----0-----0-----|


                                         |----3----|                            
  E  E  E  E  E  E  E  E     Q    E  E   Q    Q    Q       Q    Q    Q    Q     
--------8--7--6--7--------|-------8--7--10----9----8----|--7-------------------|
--------------------------|-----------------------------|----------------------|
--------8-----------------|-------8-----10----9----8----|--8-------------------|
-----------------------9--|-----------------------------|----------------------|
-----9--------------------|-----------------------------|----------------------|
--7-----7-----7-----7-----|--7----7------7---------7----|--7----7----7----7----|


  Q    Q    Q    Q        E   E   E   E   S   S  E   E   E   
----------------------|-------------------------------------|
----------------------|--11------11------11p-10-------------|
----------------------|------12------12---------12--11--12--|
----------------------|-------------------------------------|
----------------------|-------------------------------------|
--7----7----7----7----|---8-------8-------8----------8------|


   S   S  E   E   E   E   E   E  E     E  E  E  E  S  S E  E  E   
---------------------------------0--|--7-----7-----7p-5----------|
--11p-10-------------10------11-----|-----8-----8-------8--7--8--|
---------12--11--12------12---------|----------------------------|
------------------------------------|----------------------------|
------------------------------------|----------------------------|
---8----------8-------8-------8-----|--0-----0-----0-------0-----|


  S  S E  E  E  E  E  E  E      E   E   E   E   S   S  E   E   E   
--7p-5----------5-----7--0--|-------------------------------------|
-------8--7--8-----8--------|--11------11------11p-10-------------|
----------------------------|------12------12---------12--11--12--|
----------------------------|-------------------------------------|
----------------------------|-------------------------------------|
--0-------0-----0-----0-----|---8-------8-------8----------8------|


   S   S  E   E   E   E   E   E  E     E  E  E  E  S  S E  E  E   
---------------------------------0--|--7-----7-----7p-5----------|
--11p-10-------------10------11-----|-----8-----8-------8--7--8--|
---------12--11--12------12---------|----------------------------|
------------------------------------|----------------------------|
------------------------------------|----------------------------|
---8----------8-------8-------8-----|--0-----0-----0-------0-----|


                                             |----3----|     
  S  S E  E  E  E  E  E  E      E   E  E  E  Q    Q    Q     
--7p-5----------5-----7-----|--11--12--0--0--3----2----1----|
-------8--7--8-----8-----8--|---8---------------------------|
----------------------------|---9------4--4--0---------0----|
----------------------------|-------------------------------|
----------------------------|-------------------------------|
--0-------0-----0-----0-----|---0------0-----0---------0----|


  Q     E   E   E.  E.  E      Q    E  E  E.  E.  E     Q    Q    Q    Q     
--0----11--12-----------0--|--10----9----------------|----------------------|
--0------------12---8---0--|---0----0----------------|-------0--------------|
--0---------------------0--|---0----0-----0-------0--|--3----0--------------|
---------------------------|-----------2------2------|----------------------|
---------------------------|-------------------------|--1----2--------------|
--0-----0-------0-------0--|---0----0--0----------0--|------------0----0----|


   S S  E   E  E   E  E   Q       E  S  S  S  S  S  S E   E   E  E   
--10-8---------8---------------|---------------------------------0--|
-------11--10-----11--8--10----|-----8-10-11-10---------------------|
---0--------0------0------0----|----------------12-10-9--12--10-----|
-------------------------------|------------------------------------|
-------------------------------|--0--------0----------0-------0-----|
-------------------------------|------------------------------------|


  E  E  E  E  E  E  E  E     E  E  E  E  E  E  S S E   
-----5--5-----3--3-----6--|--6-----5--5-----8--8-8-8--|
-----3--3-----1--1-----8--|--8-----3--3-----8--8-8-8--|
--2--------0--------------|-----------------8--8-8-8--|
--0-----0-----------------|-----0-----0---------------|
-----------3-----3--6--6--|--6------------------------|
--------------------------|--------------8--8---------|


   S S  E   E  E   E  E   Q       E  S  S  S  S  S  S E   E   E  E   
--10-8---------8---------------|---------------------------------0--|
-------11--10-----11--8--10----|-----8-10-11-10---------------------|
---0--------0------0------0----|----------------12-10-9--12--10-----|
-------------------------------|------------------------------------|
-------------------------------|--0--------0----------0-------0-----|
-------------------------------|------------------------------------|


               |-----3-----|                             
   Q     Q     Q     Q     Q        Q    Q    Q    Q     
--10----10----10----10----10----|--13-------------------|
--10----10----10----10----10----|---8-------------------|
--10----10----10----10----10----|---8-------------------|
---0-----------0-----0-----0----|-----------------------|
--------------------------------|-----------------------|
--------------------------------|---8----8----8----8----|


               |-----3-----|                                
   Q     Q     Q     Q     Q        Q     Q     Q     Q     
--10----10----10----10----10----|--13----------------------|
--10----10----10----10----10----|--13----------------------|
--10----10----10----10----10----|--12----------------------|
--12----12----12----12----12----|--------------------------|
--------------------------------|--------------------------|
--------------------------------|--11----11----11----11----|


   E   E   E   E   E   E   Q        E   E   E   E   E   E   Q     
--------------------------------|--------------------------------|
--10------10------10------10----|--10------10------10------10----|
--------------------------------|------10------------------------|
--12--13--11--13--12--13--11----|--12------12--12--12--13--11----|
--------------------------------|--------------------------------|
--10------10------10------10----|--10------10------10------10----|


   E   E   E   E   E   E   Q        E   E   E   E   E   E   Q     
--------------------------------|--------------------------------|
--10------10------10------10----|--10------10------10------10----|
--------------------------------|------10------------------------|
--12--13--11--13--12--13--11----|--12------12--12--12--13--11----|
--------------------------------|--------------------------------|
--10------10------10------10----|--10------10------10------10----|


  E  E  E  E  E  E  Q       E  E  E  E  E  E  Q       E  E  E  E  E  E  Q     
--5--6--4--6--5--6--4----|--5--8--5--5--5--6--4----|--5--6--4--6--5--6--4----|
--6--6--6--6--6--6--6----|--6--6--6--6--6--6--6----|--6--6--6--6--6--6--6----|
--7--7--7--7--7--7--7----|--7--7--7--7--7--7--7----|--7--7--7--7--7--7--7----|
--0-----0-----0-----0----|--0-----0-----0-----0----|--0-----0-----0-----0----|
-------------------------|-------------------------|-------------------------|
-------------------------|-------------------------|-------------------------|


  E  E  E  E  E  E  Q        E   E   E   E   E   E   E   E   
--5--8--5--5--5--6--4----|--10------------------------------|
--6--6--6--6--6--6--6----|----------14------10------14------|
--7--7--7--7--7--7--7----|------10------10------10------10--|
--0-----0-----0-----0----|---0-------0-------0-------0------|
-------------------------|----------------------------------|
-------------------------|----------------------------------|


   E   E   E   E   E   E  E   E      E   E   E   E   E   E   E   E   
--13------12------10------9------|--10------------------------------|
---------------------------------|----------14------10------14------|
------10------10------10-----10--|------10------10------10------10--|
---0-------0-------0------0------|---0-------0-------0-------0------|
---------------------------------|----------------------------------|
---------------------------------|----------------------------------|


   E   E   E   E   E   E  E   E      E   E   E   E   E   E   E   E   
--13------12------10------9------|--10------------------------------|
---------------------------------|--10------14------10------14------|
------10------10------10-----10--|------10--10--10--10--10--10--10--|
---0-------0-------0------0------|---0-------0-------0-------0------|
---------------------------------|----------------------------------|
---------------------------------|----------------------------------|


   E   E   E   E   E   E   E   E      E   E   E   E   E   E   E   E   
--13------12------10-------9------|--10------------------------------|
--10------10------10------10------|--10------14------10------14------|
------10------10------10------10--|------10--10--10--10--10--10--10--|
---0-------0-------0-------0------|---0-------0-------0-------0------|
----------------------------------|----------------------------------|
----------------------------------|----------------------------------|


   E   E   E   E   E   E   E   E      E   E   Q    E  E  E  E   
--13------12------10-------9------|--13--13--10-------5--5--5--|
--10------10------10------10------|--10--10--10-------6--6--6--|
------10------10------10------10--|--10--10--10-------7--7--7--|
---0-------0-------0-------0------|---0-------0----0-----0-----|
----------------------------------|----------------------------|
----------------------------------|----------------------------|


  E  E  E  E  Q    E  E      E   E   H.             
--4--4--6--6--5----4--6--|--13--13--10------------||
--6--6--6--6--6----6-----|--10--10--10------------||
--7--7--7--7--7----7-----|--10--10--10------------||
--0-----0-----0----0-----|---0-------0------------||
-------------------------|------------------------||
-------------------------|------------------------||




Duration Legend
---------------
W - whole
H - half
Q - quarter
E - 8th
S - 16th
T - 32nd
X - 64th
. - note dotted
|-n-|  - n-tuplets


Legend
L - tied note
x - dead note
h - hammer on/pull off
b - bend
s - slide
~ - vibrato
g - ghost note
> - accentuated note
t - trill
M - palm mute
. - staccato
P - popping (bass)
S - slapping (bass)
+ - tapping
W - wide vibrato
< - fade in
w - whammy bar
= - tremolo picking
v - brush up
^ - brush down
V - pick stroke up
n - pick stroke down
Login or Register to remove this ad.

15 comments on One Winged Angel

This must have taken a ton of

5

This must have taken a ton of work!

Well, not THAT much actually.

Well, not THAT much actually. I don't want to sound arrogant or anything like that, but it came quite naturally while I was working on it. Weird, but hey, I'm not going to complain about it, it's great to feel your musical skills improving, don't you think ? :D
What gave me wayyyyyyyyyyy much trouble is my shitty computer.
Let me explain : this afternoon, I was finihing to tab this track, when Guitar Pro suddenly crashed, because my computer is an old fuck who sucks donkey dicks.
I had clicked the "save" button juste before the crash, so I wasn't too worry about, but... when I tried to open the tab again, Guitar Pro told me that it was corrupted.
I lost everything. No need to say it really pissed me off.
Thankfully, I have a good memory, and I was able to tab it AGAIN in a matter of hours.
I changed minor things in the process, so, this tab is the "superior version" of my arrangement.
Still, I won't do the same mistake twice. Next time I tab something, I'll create copies of the file every 10 minutes or so. ><"

i know you use guitar pro 6

i know you use guitar pro 6 so it may be different, but in gp5 there is an option in the settings for it to make an automatic backup of your work every 5 10 25 or 50 actions

Pretty sure its the same, but

Pretty sure its the same, but his save-file was corrupt which can happen to GP5 as well. Only way to avoid it is to save 2 different copies.

Also nice job doom!

oh i see, i've never used the

oh i see, i've never used the function so i thought it made a separate backup :E

Glad you like it, guys ^^ And

Glad you like it, guys ^^
And yeah, I already use the auto-save feature of GP (every 25 actions), but I still use the "manual" save sometimes. Still, auto-save or not, when it crashed, GP fucked everything up.
That kind of shit never happened to me before, and it won't happen again. NEVER. ><"

*UPDATE*

*UPDATE*
Changed a few minor things to be as faithful as possible to the original version, in terms of transitions between the different parts of the song.

SFX Render

Did a SFX render of this to show the benefits of the program.... well enjoy!

One Winged Angel (SFX)
-new verison was released you may hear a few differences.
You can see the new verison of the Midi above for comparison, or look at my uploads on my account for the orginal midi I used in the render.

Wut ?

Wut ?

Huh the site killed my link

Huh the site killed my link and locked my post it seems, essentially this was just for fun thing I did using your tab, may use it for a cover down the road as well.

Doesn't look like it want's to work I'll bug a mod about it later.
https://soundcloud.com/bigheadclan/one-winged-angel

I don't think us mods can fix

I don't think us mods can fix links in comments right now :-(

It's part of Ash's HTML filtering, and it's a good thing in that it helps with spam, but it has an unfortunate side effect—there's no setting to disable it for individual posts. In some other places we can "approve" HTML by changing the filtering on an individual post. Anyway, if you ask Ash about it, tell him it would be good if we could approve links in comments like these, too :-)

Sure I will mention it to

Sure I will mention it to him, don't know if he will budge on that after the recent hack but who knows!

Okaaaaaaaaaaaaay ! That's

Okaaaaaaaaaaaaay ! That's nice ^^
What program did you used to do that ?

It's called Sonatina

It's called Sonatina Symphonic Orchestra

Only took like 15 minutes to make it sound like this.

Used your midi dropped it into Reaper + SSO (SFX is just the player, coppied the track a few times changed the instruments and presto.

Insane arrangement. Thanks

5

Insane arrangement. Thanks for sharing!