Ads

Lifestream (Final Fantasy VII) Guitar Tab

Submitted: Sep 02, 2009 by SpiderTemplarius (Last updated: Sep 18, 2009)

5
Average: 5 (7 votes)
Download | Listen
Game: Final Fantasy VII
Composer(s): Nobuo Uematsu
Style: Arrangement, Fingerstyle
Series: Final Fantasy

AutoScroll: Slow | Medium | Fast
                                      Life Stream                                         


                 Composed by Nobuo Uematsu - Arranged by SpiderTemplarius

bpm=90

     E  E  E  E  E  E     E  E  E  E  E  E     E  E  E  E  E  E     E  E  E  E  E  E   
E||--------------------|--------------------|--------------------|--------------------|
B||--------------------|--------------------|--------------------|--------------------|
G||-----------0--------|--0--------0--------|-----------0--------|--0--------0--------|
D||--------0-----0-----|-----0--------0-----|--------0-----0-----|-----0--------0-----|
A||-----2-----------2--|--------2--------2--|-----2-----------2--|--------2--------2--|
E||--3-----------------|--------------------|--3-----------------|--------------------|


  E  E  E  E  E  E     E  E  E  E  E  E     E  E  E  E  E  E     E  E  E  E  E  E   
-----------3--------|-----------2--------|--------------------|-----------1--------|
--------------------|--3-----------------|--------------------|--------------------|
--------------0-----|-----0--------0-----|--0--------0--------|--------2-----2-----|
--------0--------0--|--------0--------0--|-----0--------0-----|-----3-----------3--|
-----2--------------|--------------------|--------2--------2--|--------------------|
--3-----------------|-----------3--------|--------------------|--1-----------------|


  E  E  E  E  E  E     E  E  E  E  E  E     E  E  E  E  E  E     E  E  E  E  E  E   
-----------0--------|--------------------|--------------------|--------------------|
--1-----------------|--3-----------------|--------------------|-----------3--------|
-----2--------2-----|-----0-----0--------|--0--------0--------|--------------------|
--------3--------3--|--------0-----0-----|-----0--------0-----|--------3-----3-----|
--------------------|-----------------2--|--------2--------2--|-----3-----------3--|
--------------------|--3-----------------|--------------------|--1-----------------|


  E  E  E  E  E  E       E  E  E  E  E  E     E  E  E  E  E  E     E  E  E  E  E  E   
--------------------||---------------------|--------------------|--------------------|
--------------------||------------0--------|--1--------3--------|--0-----------------|
--2-----------------||*--------------0-----|-----0--------0-----|-----------0--------|
-----3-----3--------||*--------0--------0--|--------0--------0--|--------0-----0-----|
--------3-----3-----||------2--------------|--------------------|-----2-----------2--|
-----------------1--||---3-----------------|--3-----------------|--3-----------------|


  E  E  E  E  E  E     E  E  E  E  E  E     E  E  E  E  E  E     E  E  E  E  E  E   
--------------------|--------------------|--------------------|--------------------|
--0-----------------|--------------------|--------------------|-----------0--------|
-----------2--------|--2-----------------|--2--------2--------|--------------0-----|
--------3-----3-----|-----3-----------3--|-----3--------3-----|--------0--------0--|
-----3-----------3--|--------3-----3-----|--------3--------3--|-----2--------------|
--1-----------------|-----------1--------|--------------------|--3-----------------|


  E  E  E  E  E  E     E  E  E  E  E  E     E  E  E  E  E  E     E  E  E  E  E  E   
--------------------|--------------------|--0-----------------|--------------------|
--1--------3--------|--0-----------------|--------------------|-----------3--------|
-----0--------0-----|-----------0--------|-----------2--------|--2-----------------|
--------0--------0--|--------0-----0-----|--------3-----3-----|-----3-----------3--|
--------------------|-----2-----------2--|-----3-----------3--|--------3-----3-----|
--3-----------------|--3-----------------|--1-----------------|-----------1--------|


  E  E  E  E  E  E     E  E  E  E  E  E     E  E  E  E  E  E     E  E  E  E  E  E   
--------------------|--------------------|--------------------|--------------------|
--------------------|-----------0--------|--1--------3--------|--0-----------------|
--2--------2--------|--------------0-----|-----0--------0-----|-----------0--------|
-----3--------3-----|--------0--------0--|--------0--------0--|--------0-----0-----|
--------3--------3--|-----2--------------|--------------------|-----2-----------2--|
--------------------|--3-----------------|--3-----------------|--3-----------------|


  E  E  E  E  E  E     E  E  E  E  E  E     E  E  E  E  E  E     E  E  E  E  E  E   
--------------------|--------------------|--------------------|--------------------|
--0-----------------|--------------------|--------------------|--------------------|
-----------2--------|--2-----------------|--0--------2--------|--0--------0--------|
--------3-----3-----|-----3-----3-----3--|-----3--------3-----|-----1--------1-----|
-----3-----------3--|--------3-----3-----|--------3--------3--|--------1--------1--|
--1-----------------|-----------1--------|--------------------|--3-----------------|


  E  E  E  E  E  E     E  E  E  E  E  E     E  E  E  E  E  E     E  E  E  E  E  E   
--------------------|--------------------|--------------------|--------------------|
--------------------|--------------------|--------------------|--------------------|
--0--------3--------|--2--------0--------|--0--------0--------|--0--------0--------|
-----1--------1-----|-----1--------1-----|-----0--------0-----|-----0--------0-----|
--------1--------1--|--------1--------1--|--------2--------2--|--------2--------2--|
-----------3--------|--------------------|--3-----------------|-----------3--------|


  E  E  E  E  E  E       E  E  E  E  E  E     E  E  E  E  E  E     E  E  E  E  E  E   
---------------------||--------------------|--------------------|--------------------|
---------------------||--0-----------------|-----------0--------|--------------------|
--0--------0--------*||-----------0--------|--0-----------------|--0--------0--------|
-----0--------0-----*||--------0-----0-----|-----0-----------0--|-----0--------0-----|
--------2--------2---||-----2-----------2--|--------2-----2-----|--------2--------2--|
---------------------||--3-----------------|-----------3--------|--------------------|


  E  E  E  E  E  E     E  E  E  E  E  E     E  E  E  E  E  E     E  E  E  E  E  E   
--------------------|--------------------|--------------------|--------------------|
--0-----------------|--------------------|--------------------|--0-----------------|
-----------2--------|--2-----------------|--2--------2--------|-----------0--------|
--------3-----3-----|-----3-----------3--|-----3--------3-----|--------0-----0-----|
-----3-----------3--|--------3-----3-----|--------3--------3--|-----2-----------2--|
--1-----------------|-----------1--------|--------------------|--3-----------------|

                                          bpm=80
  E  E  E  E  E  E     E  E  E  E  E  E     E  E  E  E  E  E     E  E  E  E  E  E   
--------------------|--------------------|--------------------|--------------------|
-----------0--------|--------------------|--0-----------------|--------------------|
--0-----------------|--0--------0--------|-----------2--------|--2-----------------|
-----0-----------0--|-----0--------0-----|--------3-----3-----|-----3-----------3--|
--------2-----2-----|--------2--------2--|-----3-----------3--|--------3-----3-----|
-----------3--------|--------------------|--1-----------------|-----------1--------|


bpm=70                 ^              
  E  E  E  E  E  E     H.             
--------------------|---------------||
--------------------|--0------------||
--2--------2--------|--0------------||
-----3--------3-----|--0------------||
--------3--------3--|--2------------||
--------------------|--3------------||




Duration Legend
---------------
W - whole
H - half
Q - quarter
E - 8th
S - 16th

Tablature Legend
----------------

^ - brush up
v - brush down
Login or Register to remove this ad.

6 comments on Lifestream

What the hell is this song? I

5

What the hell is this song? I don't recall it from the game, at all. I likes it either way though.

Archard check this gameplay's

Archard check this gameplay's short vid:
http://www.youtube.com/watch?v=WjtQ-W7vDwQ
I'm sure you remember :]

is this from advent children?

is this from advent children?

I think it plays when you are

I think it plays when you are in Cosmo Canyon and the old man shows you the Solar System in the observatory

Exactly - this is at Cosmo

Exactly - this is at Cosmo Canyon, when Bugenhagen is telling about Gaia Theory.

Awesome

5

Really really awesome.

This was just about the last part I got up to in the game before my PS3 bricked and I lost my save, I remember it though. Nice song, nice arrangement.