Ads

Infiltrating Shinra Tower (Final Fantasy VII) Guitar Tab

Submitted: Apr 30, 2011 by

5
Average: 5 (1 vote)
Download | Listen
Game: Final Fantasy VII
Composer(s): Nobuo Uematsu
Style: 2 or more instruments, Transcription
Series: Final Fantasy

Click here for a video example.

AutoScroll: Slow | Medium | Fast
Infiltrating Shinra Tower
Final Fantasy 7
Nobuo Uematsu
4/28/11

**All Guitars normal tuning**

**Guitar 1**

e|------------------------------|
B|------------8--10--12--14-----|
G|-7---9---10-------------------|
D|------------------------------|
A|------------------------------|
E|------------------------------|

e|------------------------------|
B|------------6--8--10--12------|
G|-5---7---8--------------------|
D|------------------------------|
A|------------------------------|
E|------------------------------|


e|------------------------------|
B|-----------3--5--7--9---------|
G|-2---4---5--------------------|
D|------------------------------|
A|------------------------------|
E|------------------------------|


e|------------------------------|
B|-------------10--12--14--16---|
G|-9---11---12------------------|
D|------------------------------|
A|------------------------------|
E|------------------------------|

Repeat as many times as wanted

*********************************

**Guitar 2**

e|------------------------------|
B|------------------------------|
G|-----------0--2--4--6---------|
D|-0---2---3--------------------|
A|------------------------------|
E|------------------------------|


e|------------------------------|
B|------------------------------|
G|------------------------------|
D|------------3--5--7--9--------|
A|-3---5---6--------------------|
E|------------------------------|


e|------------------------------|
B|------------------------------|
G|------------------------------|
D|------------0--2--4--6--------|
A|-0---2---3--------------------|
E|------------------------------|


e|------------------------------|
B|------------------------------|
G|------------2--4--6--8--------|
D|-2---4---5--------------------|
A|------------------------------|
E|------------------------------|

Repeat as many times as wanted also

*********************************

**Guitar 3**

e|------------------------------|
B|------3~----------------------|
G|------2~----------------------|
D|------0~----------------------|
A|------------------------------|
E|------------------------------|

e|------------------------------|
B|------------------------------|
G|------5~----------------------|
D|------5~----------------------|
A|------3~----------------------|
E|------------------------------|

e|------------------------------|
B|------------------------------|
G|------2~----------------------|
D|------2~----------------------|
A|------0~----------------------|
E|------------------------------|

e|------------------------------|
B|------5~----------------------|
G|------4~----------------------|
D|------2~----------------------|
A|------------------------------|
E|------------------------------|

Repeats throught song in that order

**Enjoy!**
Login or Register to remove this ad.