Ads

Hurry Faster! (Final Fantasy VII) Guitar Tab

Submitted: Jun 28, 2013 by Colin_spade

4.666665
Average: 4.7 (3 votes)
Download | Listen
Game: Final Fantasy VII
Composer(s): Nobuo Uematsu
Style: Arrangement, Fingerstyle
Series: Final Fantasy

AutoScroll: Slow | Medium | Fast
Hurry Faster!                                   


                                                                   Nobuo Uematsu
Track 1

Tempo = 180

High tempo song :D but enjoy it! energetic! 


     E  E  E  E  E  E     E  E  E  E  E  E     E  E  E  E  E  E   
E||--------------------|--------------------|--------------------|
B||--3-----3--4--3-----|--3--------3-----4--|--3-----3--4--3-----|
G||-----5-----------5--|-----2--2-----5-----|-----5-----------5--|
D||--0--------0--------|--0-----------------|--0--------0--------|
A||--------------------|--------3-----3-----|--------------------|
E||--------------------|--------------------|--------------------|


  E  E  E  E  E  E     E  E  E  E  E  E     E  E  E  E  E  E   
--------------------|--------------------|--------------------|
--6--4--3--4--3-----|--3-----3--4--3-----|--3--------3-----4--|
-----------------5--|-----5-----------5--|-----2--2-----5-----|
--0-----3-----1-----|--0--------0--------|--0-----------------|
--------------------|--------------------|--------3-----3-----|
--------------------|--------------------|--------------------|


  E  E  E  E  E  E     E  E  E  E  E  E     E  E  E  E  E  E   
--------------------|--------------------|--3--1--3--4--3--1--|
--3-----3--4--3-----|--6--4--3--4--3-----|--------------------|
-----5-----------5--|-----------------5--|--0--------0--------|
--0--------0--------|--0-----1-----3--4--|--------------------|
--------------------|--------------------|--------------------|
--------------------|--------------------|--------------------|


  Q    Q    Q       Q     Q    Q       Q    Q    E   E     E  E  E  E  E  E   
--3----6---------|-------10----8----|--6----8----6p--4--|--3--------3--------|
------------9----|--8---------------|-------------------|--3--------3--------|
--0--------------|------------------|-------------------|--1--------1--------|
-------3----6----|--5-----0---------|------------4------|--------------------|
-----------------|-------------6----|--7----8-----------|--------------------|
-----------------|------------------|-------------------|-----3--3-----3--3--|


  Q    Q    Q    Q    Q       E  E  E  E  E  E     Q    Q    Q    Q       
---------------------------|--3--------3--------|-----------------------||
---------------------------|--3--------3--------|-----------------------||
--0------------------------|--1--------1--------|--0-------------------*||
-------0----3----0----3----|--------------------|-------0----3----0----*||
---------------------------|--------------------|-----------------------||
---------------------------|-----3--3-----3--3--|-----------------------||


  E  E  E  E  E  E     Q    Q    Q    Q       E  E  E  E  E  E  E   
--3--------3--------|----------------------|--5--8--6-----5--0--5--|
--3--------3--------|----------------------|-----------8-----------|
--1--------1--------|--0-------------------|-----------------------|
--------------------|-------0----3----0----|-----------------------|
--------------------|----------------------|--0-----------0--------|
-----3--3-----3--3--|----------------------|-----------------------|


  E  E  E  E  E  E  E     E  E  E  E  E  E  E     E  E  E  E  E   E  E  E    
-----3--1-----0-----0--|-----------------------|----------------------------|
--3--------1-----------|-----3--1--------------|----------------------------|
-----------------3-----|--2--------0--3--0--2--|--2-----2-----3p--0---------|
--0--------------------|-----------------------|--2--2-----2---------0------|
-----------------------|-----------------------|--0---------------------1h--|
--3-----------3--------|--1-----------1--------|----------------------------|


                                                      ^                     
  E  E  E  E  E   E  E  E     E  E  E  E  E  E  E     E  E  E  E  E  E  E   
---------------------------|--5--8--6-----5--0--5--|-----3--1-----0-----0--|
---------------------------|-----------8-----------|--3--------1-----------|
--------2-----3p--0--------|-----------------------|-----------------3-----|
-----2-----2---------0-----|-----------------------|--0--------------------|
--0---------------------1--|--0-----------0--------|-----------------------|
---------------------------|-----------------------|--3-----------3--------|


  E  E  E  E  E  E  E     E  E  E  E  E   E  E  E    
--------------------3--|--5-------------------------|
-----3--1--------3-----|----------------------------|
--2--------0--3--------|--------2-----3p--0---------|
-----------------------|-----2-----2---------0------|
-----------------------|--0---------------------1h--|
--1-----------1--------|----------------------------|


                              ^                   ^               
  E  E  E  E  E   E  E  E     Q    E  E  E  E     Q    Q    Q     
---------------------------|-------------------|------------0----|
---------------------------|----------1--L-----|--3----1----1----|
--------2-----3p--0--------|--3----2--2--L--3--|--3----2---------|
-----2-----2---------0-----|--5-------------5--|-----------------|
--0---------------------1--|-------------------|-----------------|
---------------------------|--3-------3--------|--3----3----3----|


                                                ^                           
  Q    E  E  E  E     Q    Q    Q       Q    E  E  E  E     Q    Q    Q     
--1-------3--L--1--|--5---------7----|-------------------|--0---------2----|
--3----5--5--L--3--|--6----8----8----|--1-------3--L--1--|--1----3----3----|
-------------------|-------9---------|--2----4--4--L--2--|-------4---------|
--0-------0--------|--0----0----0----|-------------------|-----------------|
-------------------|-----------------|--0-------0--------|--0----0----0----|
-------------------|-----------------|-------------------|-----------------|


  ^                                                                       
  Q    E  E  Q       Q    Q    Q       Q    E  E  Q       Q    Q    Q     
--3---------------|-----------------|------------------|-----------------|
--5---------------|-----------------|------------------|-----------------|
--4---------------|-----------------|------------------|-----------------|
--2----L--2--L----|--2----2---------|--2-------2--L----|--2----2---------|
------------------|------------2----|------------------|------------2----|
------------------|-----------------|------------------|-----------------|


                      ^                 ^                                     
  Q    E  E  E  E     Q    Q    Q       Q    E  E  E  E     Q     Q     Q     
-------------------|--1---------3----|--4-------6--L--4--|--8----------10----|
--2-------4--L--2--|--2----4----4----|--6----8--8--L--6--|--9----11----11----|
--3----5--5--L--3--|-------5---------|-------------------|-------12----------|
-------------------|-----------------|--3----------------|-------------------|
--1-------1--------|--1----1----1----|----------8--------|--8-----8-----8----|
-------------------|-----------------|-------------------|-------------------|


                                        ^                                  
  Q    E  E  E  E     Q    Q    Q       Q    E  E  Q       Q    Q    Q     
----------1--L-----|--3---------5----|--6---------------|-----------------|
--4----3--3--L--4--|--4----6----4----|--8---------------|-----------------|
--5-------------5--|-------7---------|--7-------0--L----|--0----0---------|
-------------------|-----------------|--5----L----------|------------0----|
--3-------3--------|--3----3----3----|------------------|-----------------|
-------------------|-----------------|------------------|-----------------|


                                       ^                                  
  Q    E  E  Q       Q    Q    Q       Q    E  E  Q       Q    Q    Q     
------------------|-----------------|--4---------------|-----------------|
------------------|-----------------|--6---------------|-----------------|
--0----L--0--L----|--0----0---------|--5---------------|-----------------|
------------------|------------0----|--3----L--3--L----|--3----3----3----|
------------------|-----------------|------------------|-----------------|
------------------|-----------------|------------------|-----------------|


                               >  >    
  Q    E  E  Q       Q    Q    E  E    
------------------|------------4--4--||
------------------|------------6--6--||
------------------|------------5--5--||
--3-------3--L----|--3----3----3--3--||
------------------|------------------||
------------------|------------------||




Duration Legend
---------------
W - whole
H - half
Q - quarter
E - 8th
S - 16th
T - 32nd
X - 64th
. - note dotted
|-n-|  - n-tuplets


Tablature Legend
----------------
L - tied note
x - dead note
g - grace note
(n) - ghost note
> - accentuded note
NH - natural harmonic
AH - artificial harmonic
TH - tapped harmonic
SH - semi harmonic
PH - pitch harmonic
h - hammer on
p - pull off
b - bend
br - bendRelease
pb - preBend
pbr - preBendRelease
brb - bendReleaseBend
\n/ - tremolo bar dip
\n - tremolo bar dive
-/n - tremolo bar Release up
/n\ - tremolo bar inverted dip
/n - tremolo bar return
-\n - tremolo bar Release down
S - shift slide
s - legato slide
/ -  slide into from below or out of upwards
\ -  slide into from above or out of downwards
~ - vibrato
W - wide vibrato
tr - trill
TP - tremolo picking
T - tapping
S - slap
P - pop
< - fade in
^ - brush up
v - brush down
Login or Register to remove this ad.

2 comments on Hurry Faster!

This is so freakin cool!

5

This is so freakin cool!

thank you :) one of my old

thank you :) one of my old tabs too xD