Ads

Hurry Faster! (Final Fantasy VII) Guitar Tab

Submitted: May 15, 2009 by Shadow2

5
Average: 5 (1 vote)
Download | Listen
Game: Final Fantasy VII
Composer(s): Nobuo Uematsu
Style: 2 or more instruments, Transcription
Series: Final Fantasy

AutoScroll: Slow | Medium | Fast
Hurry Faster
Final Fantasy VII
Composed by Nobuo Uematsu
Tabbed by Maxim Panin
5/14/2009

                                    Lead                                       


ST1
     H            S S S S  S S  S S  S S S S  E   S S  E   S S E   S S  
E||-----------|--10---8---10---11---10---8---10-----------10---8--11---|
B||-----------|----------------------------------10---10---------------|
G||-----------|--------------------------------------------------------|
D||-----------|--------------------------------------------------------|
A||-----------|--------------------------------------------------------|
E||-----------|--------------------------------------------------------|


   S S S S  S S  S S  S S S S  E   E   E   E   E  E   
--10---8---10---11---10---8---13--11--10--11--10--8--|
-----------------------------------------------------|
-----------------------------------------------------|
-----------------------------------------------------|
-----------------------------------------------------|
-----------------------------------------------------|


   S S S S  S S  S S  S S S S  E   S S  E   S S E   S S  
--10---8---10---11---10---8---10-----------10---8--11---|
----------------------------------10---10---------------|
--------------------------------------------------------|
--------------------------------------------------------|
--------------------------------------------------------|
--------------------------------------------------------|


   S S S S  S S  S S  S S S S  E   E   E   E   E  E   
--10---8---10---11---10---8---13--11--10--11--10--8--|
-----------------------------------------------------|
-----------------------------------------------------|
-----------------------------------------------------|
-----------------------------------------------------|
-----------------------------------------------------|


   S S  S S  S S  S S  S S  S S  Q     Q     Q     
--15---13---15---16---15---13---15----18----16----|
--------------------------------------------------|
--------------------------------------------------|
--------------------------------------------------|
--------------------------------------------------|
--------------------------------------------------|


   Q     Q     Q     Q     Q     E   E      E  Q     E  W                Q     
--15----22----20----18----20----18--16--|--15-------15------------------------|
----------------------------------------|-------------------------------------|
----------------------------------------|-------------------------------------|
----------------------------------------|-------------------------------------|
----------------------------------------|-------------------------------------|
----------------------------------------|-------------------------------------|


  Q     E  Q     E  W                Q     
-------15-------15------------------------|
------------------------------------------|
------------------------------------------|
------------------------------------------|
------------------------------------------|
------------------------------------------|


   E  Q     E  W                Q        E  Q     E  W                Q     
--15-------15------------------------|--15-------15------------------------|
-------------------------------------|-------------------------------------|
-------------------------------------|-------------------------------------|
-------------------------------------|-------------------------------------|
-------------------------------------|-------------------------------------|
-------------------------------------|-------------------------------------|


   S S  S S  S S  S S  S S  S S  S S  S S  S S  S S  S S  S S  
---------------------------------------------------------11---|
--15---13---15---16---15---13---15-------------15---13--------|
-------------------------------------14---14------------------|
--------------------------------------------------------------|
--------------------------------------------------------------|
--------------------------------------------------------------|


   S S S S  S S  S S  S S S S  E   E   E   E   E  E   
--10---8---10---11---10---8---13--11--10--11--10--8--|
-----------------------------------------------------|
-----------------------------------------------------|
-----------------------------------------------------|
-----------------------------------------------------|
-----------------------------------------------------|


   S S S S  S S  S S  S S S S  S S  S S  S S  S S S S  S S  
--10---8---10---11---10---8---10-------------10---8---11---|
-----------------------------------10---10-----------------|
-----------------------------------------------------------|
-----------------------------------------------------------|
-----------------------------------------------------------|
-----------------------------------------------------------|


   S S S S  S S  S S  S S S S  E   E   E   E   E  E   
--10---8---10---11---10---8---13--11--10--11--10--8--|
-----------------------------------------------------|
-----------------------------------------------------|
-----------------------------------------------------|
-----------------------------------------------------|
-----------------------------------------------------|


   S S  S S  S S  S S  S S  S S  Q     Q     Q     
--15---13---15---16---15---13---15----18----16----|
--------------------------------------------------|
--------------------------------------------------|
--------------------------------------------------|
--------------------------------------------------|
--------------------------------------------------|


   Q     Q     Q     Q     Q     E   E      E  Q     E  W                Q     
--15----22----20----18----20----18--16--|--15-------15------------------------|
----------------------------------------|-------------------------------------|
----------------------------------------|-------------------------------------|
----------------------------------------|-------------------------------------|
----------------------------------------|-------------------------------------|
----------------------------------------|-------------------------------------|


  Q     E  Q     E  W                Q     
-------15-------15------------------------|
------------------------------------------|
------------------------------------------|
------------------------------------------|
------------------------------------------|
------------------------------------------|


   E  Q     E  W                Q        E  Q     E  W                Q     
--15-------15------------------------|--15-------15------------------------|
-------------------------------------|-------------------------------------|
-------------------------------------|-------------------------------------|
-------------------------------------|-------------------------------------|
-------------------------------------|-------------------------------------|
-------------------------------------|-------------------------------------|


   E   S S  S S  S S  S S  S S  S S     E   S S  S S  S S  S S  S S  S S  
--17--20---18--------17--------17---|------15---13--------12--------12---|
----------------20--------17--------|--15------------13--------11--------|
------------------------------------|------------------------------------|
------------------------------------|------------------------------------|
------------------------------------|------------------------------------|
------------------------------------|------------------------------------|


   E   S S S S S S S S S S S S     W                   W                 
------10---8-------6-----------|--------------------|-------------------|
--10-----------8-------8---9---|--10----------------|--L----------------|
-------------------------------|--------------------|-------------------|
-------------------------------|--------------------|-------------------|
-------------------------------|--------------------|-------------------|
-------------------------------|--------------------|-------------------|


   E   S S  S S  S S  S S  S S  S S     E   S S  S S  S S  S S  S S  S S  
--17--20---18--------17--------17---|------15---13--------12--------12---|
----------------20--------17--------|--15------------13--------11--------|
------------------------------------|------------------------------------|
------------------------------------|------------------------------------|
------------------------------------|------------------------------------|
------------------------------------|------------------------------------|


   E   S S S S S S S S S  S  S  S     S  H.           E.     W                 
------10---8-------5-6-8-10-12-13-|--15-17------------L---|--L----------------|
--10-----------8------------------|-----------------------|-------------------|
----------------------------------|-----------------------|-------------------|
----------------------------------|-----------------------|-------------------|
----------------------------------|-----------------------|-------------------|
----------------------------------|-----------------------|-------------------|


  Q    E  Q    E   Q    E  E   Q        Q     E   Q     E   Q     E  E   Q     
--6----5--8----6--10----8-----12----|--13----12--15----13--17----15-----19----|
------------------------------------|-----------------------------------------|
------------------------------------|-----------------------------------------|
------------------------------------|-----------------------------------------|
------------------------------------|-----------------------------------------|
------------------------------------|-----------------------------------------|


   Q     E   Q     E   Q     E  E   Q        W                H         
----------------------12----10-----14----|--15----------------L--------|
------------15----13---------------------|-----------------------------|
--17----16-------------------------------|-----------------------------|
-----------------------------------------|-----------------------------|
-----------------------------------------|-----------------------------|
-----------------------------------------|-----------------------------|


  W                H           Q    E   Q    E   Q     E  E   Q     
----------------------------|--9----8--11----9--13----11-----15----|
----------------------------|--------------------------------------|
----------------------------|--------------------------------------|
----------------------------|--------------------------------------|
----------------------------|--------------------------------------|
----------------------------|--------------------------------------|


   Q     E   Q     E   Q     E  E   Q     
--16----15--18----16--20----18-----22----|
-----------------------------------------|
-----------------------------------------|
-----------------------------------------|
-----------------------------------------|
-----------------------------------------|


   Q     E   Q     E   Q     E  E   Q        W                H         
----------------------15----13-----17----|--18----------------L--------|
------------18----16---------------------|-----------------------------|
--20----19-------------------------------|-----------------------------|
-----------------------------------------|-----------------------------|
-----------------------------------------|-----------------------------|
-----------------------------------------|-----------------------------|


  W                H            W                H         
--L----------------L--------|--16----------------L--------|
----------------------------|-----------------------------|
----------------------------|-----------------------------|
----------------------------|-----------------------------|
----------------------------|-----------------------------|
----------------------------|-----------------------------|


  W                H          
--L----------------L--------||
----------------------------||
----------------------------||
----------------------------||
----------------------------||
----------------------------||






			Rhythm


ST3
     H           S Q    S S Q    S S E.  S E.  Q     
E||-----------|-------------------------------------|
B||-----------|-------------------------------------|
G||-----------|-------------------------------------|
D||-----------|--0--------0--------0----------------|
A||-----------|--------------------------3-----3----|
E||-----------|-------------------------------------|


  S Q    S S Q    S Q    Q    Q       S Q    S S Q    S S E.  S E.  Q     
-----------------------------------|-------------------------------------|
-----------------------------------|-------------------------------------|
-----------------------------------|-------------------------------------|
--0--------0--------0----3----1----|--0--------0--------0----------------|
-----------------------------------|--------------------------3-----3----|
-----------------------------------|-------------------------------------|


  S Q    S S Q    S Q    Q    E  E     S Q    S S Q    S Q    Q    Q     
------------------------------------|-----------------------------------|
------------------------------------|-----------------------------------|
------------------------------------|--0--------0--------0---------1----|
--0--------0--------0----1----3--4--|-------------------------3---------|
------------------------------------|-----------------------------------|
------------------------------------|-----------------------------------|


  Q    Q    Q    Q    Q    Q       E  Q    E  W                Q     
--------------------------------|--4-------4------------------------|
--------------------------------|-----------------------------------|
--0-----------------------------|-----------------------------------|
-------0----1----2----3----4----|-----------------------------------|
--------------------------------|-----------------------------------|
--------------------------------|-----------------------------------|


  Q    E  Q    E  W                Q       E  Q    E  W                Q     
-------4-------4------------------------|--4-------4------------------------|
----------------------------------------|-----------------------------------|
----------------------------------------|-----------------------------------|
----------------------------------------|-----------------------------------|
----------------------------------------|-----------------------------------|
----------------------------------------|-----------------------------------|


  E  Q    E  W                Q       S Q    S S Q    S S E.  S E.  Q     
--4-------4------------------------|-------------------------------------|
-----------------------------------|-------------------------------------|
-----------------------------------|-------------------------------------|
-----------------------------------|--0--------0--------0----------------|
-----------------------------------|--------------------------3-----3----|
-----------------------------------|-------------------------------------|


  S Q    S S Q    S Q    Q    Q       S Q    S S Q    S S E.  S E.  Q     
-----------------------------------|-------------------------------------|
-----------------------------------|-------------------------------------|
-----------------------------------|-------------------------------------|
--0--------0--------0----3----1----|--0--------0--------0----------------|
-----------------------------------|--------------------------3-----3----|
-----------------------------------|-------------------------------------|


  S Q    S S Q    S Q    Q    E  E     S Q    S S Q    S Q    Q    Q     
------------------------------------|-----------------------------------|
------------------------------------|-----------------------------------|
------------------------------------|--0--------0--------0---------1----|
--0--------0--------0----1----3--4--|-------------------------3---------|
------------------------------------|-----------------------------------|
------------------------------------|-----------------------------------|


  Q    Q    Q    Q    Q    Q       E  Q    E  W                Q     
--------------------------------|--4-------4------------------------|
--------------------------------|-----------------------------------|
--0-----------------------------|-----------------------------------|
-------0----1----2----3----4----|-----------------------------------|
--------------------------------|-----------------------------------|
--------------------------------|-----------------------------------|


  Q    E  Q    E  W                Q       E  Q    E  W                Q     
-------4-------4------------------------|--4-------4------------------------|
----------------------------------------|-----------------------------------|
----------------------------------------|-----------------------------------|
----------------------------------------|-----------------------------------|
----------------------------------------|-----------------------------------|
----------------------------------------|-----------------------------------|


  E  Q    E  W                Q       E  Q.     Q.        E  Q.     Q.      
--4-------4------------------------|--0---------0------|-------------------|
-----------------------------------|-------------------|--3---------3------|
-----------------------------------|-------------------|-------------------|
-----------------------------------|-------------------|-------------------|
-----------------------------------|-------------------|-------------------|
-----------------------------------|-------------------|-------------------|


  E  Q.     Q.        W                   H        H         
-------------------|-------------------|--------------------|
-------------------|-------------------|--------------------|
--2---------2------|--2----------------|--L-----------------|
-------------------|-------------------|--------------------|
-------------------|-------------------|--------------------|
-------------------|-------------------|--------------------|


  E  Q.     Q.        E  Q.     Q.        E  Q.     Q.        W                 
--0---------0------|-------------------|-------------------|-------------------|
-------------------|--3---------3------|-------------------|-------------------|
-------------------|-------------------|--2---------2------|--2----------------|
-------------------|-------------------|-------------------|-------------------|
-------------------|-------------------|-------------------|-------------------|
-------------------|-------------------|-------------------|-------------------|


  H        H           Q    E  Q    E  Q    E  E  Q     
--------------------|-----------------------------0----|
--------------------|----------1-------3----1----------|
--L-----------------|--3----2-------3------------------|
--------------------|----------------------------------|
--------------------|----------------------------------|
--------------------|----------------------------------|


  Q    E  Q    E  Q    E  E  Q       Q    E  Q    E  Q    E  E  Q     
--1----0--3----1--5----3-----7----|------------------0----------2----|
----------------------------------|-------0--3----1-------3----------|
----------------------------------|--5-------------------------------|
----------------------------------|----------------------------------|
----------------------------------|----------------------------------|
----------------------------------|----------------------------------|


  W                H           W                H         
--3----------------L--------|----------------------------|
----------------------------|----------------------------|
----------------------------|----------------------------|
----------------------------|----------------------------|
----------------------------|----------------------------|
----------------------------|----------------------------|


  Q    E  Q    E  Q    E  E  Q       Q    E  Q    E  Q    E  E   Q     
------------------1----------3----|--4----3--6----4--8----6-----10----|
--2----1--4----2-------4----------|-----------------------------------|
----------------------------------|-----------------------------------|
----------------------------------|-----------------------------------|
----------------------------------|-----------------------------------|
----------------------------------|-----------------------------------|


  Q    E  Q    E  Q    E  E  Q       W                H         
------------------3----1-----5----|--6----------------L--------|
----------6----4------------------|----------------------------|
--8----7--------------------------|----------------------------|
----------------------------------|----------------------------|
----------------------------------|----------------------------|
----------------------------------|----------------------------|


  W                H           W                H         
--L----------------L--------|--4----------------L--------|
----------------------------|----------------------------|
----------------------------|----------------------------|
----------------------------|----------------------------|
----------------------------|----------------------------|
----------------------------|----------------------------|


  W                H          
--L----------------L--------||
----------------------------||
----------------------------||
----------------------------||
----------------------------||
----------------------------||



Duration Legend
---------------
W - whole
H - half
Q - quarter
E - 8th
S - 16th
T - 32nd
X - 64th
. - note dotted
|-n-|  - n-tuplets


Tablature Legend
----------------
L - tied note
x - dead note
g - grace note
(n) - ghost note
> - accentuded note
NH - natural harmonic
AH - artificial harmonic
TH - tapped harmonic
SH - semi harmonic
PH - pitch harmonic
h - hammer on
p - pull off
b - bend
br - bendRelease
pb - preBend
pbr - preBendRelease
brb - bendReleaseBend
\n/ - tremolo bar dip
\n - tremolo bar dive
-/n - tremolo bar Release up
/n\ - tremolo bar inverted dip
/n - tremolo bar return
-\n - tremolo bar Release down
S - shift slide
s - legato slide
/ -  slide into from below or out of upwards
\ -  slide into from above or out of downwards
~ - vibrato
W - wide vibrato
tr - trill
TP - tremolo picking
T - tapping
S - slap
P - pop
< - fade in
^ - brush up
v - brush down
Login or Register to remove this ad.

1 comment on Hurry Faster!

Hey, Not Bad (:

5

Hey,
Not Bad (: