Ads

Great Warrior (Final Fantasy VII) Guitar Tab

Submitted: Jun 25, 2010 by Daugreano (Last updated: Jul 04, 2010)

4
Average: 4 (1 vote)
Download | Listen
Game: Final Fantasy VII
Composer(s): Nobuo Uematsu
Style: Transcription
Series: Final Fantasy

AutoScroll: Slow | Medium | Fast
Song: Great Warrior
Game: Final Fantasy VII 
Composer: Nobuo Uematsu
Tabbed by: Daugreano 


Guitar: 

   Q    Q    E   Q    E     W        Q    Q    E   Q    E     W        Q.    E   E   Q.
E|------------------------|--------|------------------------|--------|---------------------|
B|------------------------|--------|------------------------|--------|---------------------|
G|------------------------|--------|------------------------|--------|---------------------|
D|-1----1----1---3----1---|--------|-1----1----4---3----1---|--------|---------------------|
A|------------------------|-4------|------------------------|-4------|---------------1-----|
E|------------------------|--------|------------------------|--------|-4-----2---4---------|

   Q.    E   E   Q.      W        W        Q    Q    E   Q    E     W        Q    Q    E   Q    E
E|---------------------|--------|--------|------------------------|--------|------------------------|
B|---------------------|--------|--------|------------------------|--------|------------------------|
G|---------------------|--------|--------|------------------------|--------|------------------------|
D|---------------------|--------|--------|-1----1----1---3----1---|--------|-1----1----4---3----1---|
A|-2-----1---2---4-----|-1------|--------|------------------------|-4------|------------------------|
E|---------------------|--------|--------|------------------------|--------|------------------------|

   W        Q.    E   E   Q.      Q.    E   E   Q.      W        Q    Q    Q    Q
E|--------|---------------------|---------------------|--------|---------------------|
B|--------|---------------------|---------------------|--------|---------------------|
G|--------|---------------------|---------------------|--------|---------------------|
D|--------|---------------------|---------------------|-1------|------4----3---------|
A|-4------|---------------1-----|-2-----1---2---4-----|--------|----------------4----|
E|--------|-4-----2---4---------|---------------------|--------|---------------------|


   W        E   E   E   E   E   E   E   E     E   E   E   E   E   E   E   E     E   E   E   E   E   E   E   E
E|--------|-----------------1---------------|-2-----------4-----------2-------|--------------------------------|
B|--------|-------------4-------4-----------|-----4-----------4-----------4---|-------------1---4---1----------|
G|--------|---------3---------------3-------|---------3-----------3-----------|---------1---------------1------|
D|-1------|-1---4-----------------------4---|---------------------------------|-----1-----------------------1--|
A|--------|---------------------------------|---------------------------------|--------------------------------|
E|--------|---------------------------------|---------------------------------|-4------------------------------|

   E   E   E   E   E   E   E   E     E   E   E   E   E   E   E   E     E   E   E   E   E   E   E   E
E|---------------------------------|-----------------1---------------|-2-----------4-----------2-------|
B|-1-----------2-----------1-------|-------------4-------4-----------|-----4-----------4-----------4---|
G|-----1-----------1-----------1---|---------3---------------3-------|---------3-----------3-----------|
D|---------1-----------1-----------|-1---4-----------------------4---|---------------------------------|
A|---------------------------------|---------------------------------|---------------------------------|
E|---------------------------------|---------------------------------|---------------------------------|

   E   E   E   E   E   E   E   E     E   E   E   E   E   E   E   E     E.   S  E.   S  E.  E.   S  S.  T
E|---------------------------------|-----------------1---------------|-----------------------------------|
B|-------------1---4---1-----------|-------------3-------3-----------|---------------------14------------|
G|---------1---------------1-------|---------3---------------3-------|-15------15------15----------15----|
D|-----1-----------------------1---|-----3-----------------------3---|-----------------------------------|
A|---------------------------------|-1-------------------------------|-----------------------------------|
E|-4-------------------------------|---------------------------------|-----------------------------------|

   Q.    E   E.   S  E.  S     W        H.     S  S  S  S    E.   S  E.   S  E   E.   S  S.  T
E|---------------------------|--------|--------------------|-----------------------------------|
B|---------------------------|--------|--------------------|---------------------14------------|
G|-13------------------------|--------|-----------------13-|-15------15------15----------15----|
D|-----------16------15------|-13-----|--------13-15-16----|-----------------------------------|
A|---------------------------|--------|--------------------|-----------------------------------|
E|---------------------------|--------|--------------------|-----------------------------------|

   Q.    E   E.   S  E.  S     W        Q    Q    Q.    E     E   H     E   E   E
E|---------------------------|--------|---------------------|-----------------------|
B|---------------------------|--------|---------------------|-----------------------|
G|-13------------------------|--------|---------------------|---------------1-------|
D|-----------16------15------|-13-----|-1----1----1---------|-1---4-----4-------4---|
A|---------------------------|--------|-----------------4---|-----------------------|
E|---------------------------|--------|---------------------|-----------------------|

   Q    Q    E   E   E   E     W        Q    Q    Q.    E     E   H.     E     Q    Q    Q.    E
E|---------------------------|--------|---------------------|----------------|---------------------|
B|---------------------------|--------|---------------------|----------------|---------------------|
G|-3----3----3---1-------1---|-3------|-0----0----0---------|-0---3----------|-0----0----0---------|
D|-------------------4-------|--------|-----------------3---|----------------|-----------------3---|
A|---------------------------|--------|---------------------|----------------|---------------------|
E|---------------------------|--------|---------------------|----------------|---------------------|

   W
E|--------|
B|--------|
G|-0------|
D|--------|
A|--------|
E|--------|

Play The Whole Thing 4x...
Login or Register to remove this ad.