Cosmo Canyon (Final Fantasy VII) Bass/Guitar Tab

Submitted: Apr 26, 2015 by andersongs87

0
Download | Listen
Game: Final Fantasy VII
Composer(s): Nobuo Uematsu
Style: 2 or more instruments, Arrangement
Series: Final Fantasy

Click here for a video example.

AutoScroll: Slow | Medium | Fast
Final Fantasy VII - Cosmo Canyon

Composers -  Nobuo Uematsu

Tabbed by andersongs87

Tuning: 
Guitar Standard (EADGBe)
Bass (EADG)

MP3 Download : https://www.mediafire.com/?c7b17bbpd1g2pm3
Backing Track : https://www.mediafire.com/?a7ako5coznbzjl2
Youtube Cover : https://www.youtube.com/watch?v=5VnmB3mDy5U

04/09/2015


Guitar and Bass
	E		E	A		E		E		E
e-----------|---------------|-----------|---------------|---------------|-----------|
B-----------|---------------|-----------|---------------|---------------|-----------|
G-----------|---------------|-----------|---------------|---------------|-----------|
D-----------|---------------|-5-7-7-7-7-|---------------|---------------|-----------|
A-5-7-7-7-7-|---5-5-7-7-7-7-|-----------|---5-5-7-7-7-7-|---5-5-7-7-7-7-|-5-7-7-7-7-|
E-----------|-7-------------|-----------|-7-------------|-7-------------|-----------|
	G		A		E		E		E		G
e---------------|---------------|---------------|---------------|---------------|---------------|
B---------------|---------------|---------------|---------------|---------------|---------------|
G---------------|---4-----------|---------------|---------------|---------------|---------------|
D-----4-5-5-5-5-|-5---5-7-7-7-7-|-7-------------|---------------|---------------|-----4-5-5-5-5-|
A-7-5-----------|---------------|---5-5-7-7-7-7-|-7-5-5-7-7-7-7-|-7-5-5-7-7-7-7-|-7-5-----------|
E---------------|---------------|---------------|---------------|---------------|---------------|
	A		E		E		E		E		A
e---------------|---------------|---------------|---------------|---------------|---------------|
B---------------|---------------|---------------|---------------|---------------|---------------|
G---4-----------|---------------|---------------|---------------|---------------|---------------|
D-5---5-7-7-7-7-|-7-------------|---------------|---------------|---------------|-----5-7-7-7-7-|
A---------------|---5-5-7-7-7-7-|-7-5-5-7-7-7-7-|-7-5-5-7-7-7-7-|---5-5-7-7-7-7-|---5-----------|
E---------------|---------------|---------------|---------------|-7-------------|-7-------------|
	G		E		E	B D A  C	C		E
e-------------|---------------|---------------|--------------|-----------|---------------|
B-------------|---------------|---------------|--------------|-----------|---------------|
G-------------|---------------|---------------|--------------|-----------|---------------|
D---4-5-5-5-5-|---------------|---------------|-----7~-------|-----------|---------------|
A-3-----------|---5-5-7-7-7-7-|---5-5-7-7-7-7-|---5-----3~-3-|-3-3-3(7x)-|-3-3-5-7-7-7-7-|
E-------------|-7-------------|-7-------------|-7------------|-----------|---------------|

e---------------|---------------|---------------|
B---------------|---------------|---------------|
G---------------|---------------|---------------|
D---------------|---------------|---------------|
A---5-5-7-7-7-7-|---5-5-7-7-7-7-|---5-5-7-7-7-7-|
E-7-------------|-7-------------|-7-------------|

Guitar Solo

e-------------------------------------------------------------------|
B-------------------------------------------------------------------|
G-------------------------------------------------------------------|
D-------------------7----9-9-9-7----7-9~-7----7-9----------5--------|
A-7-7-7-5-7-10~-10----10---------10--------10-----10-7-7-5---7-5-7~-|
E-------------------------------------------------------------------|

e------------------------------------------------------------------------------------|
B----------------------10----12-12-12-10----10-12~--10-----10-12------------8--------|
G---7-9-9-9-7-9-12~-12----12-------------12------------12--------12-9-9~--7---9-7-9~-|
D-9----------------------------------------------------------------------------------|
A------------------------------------------------------------------------------------|
E------------------------------------------------------------------------------------|

e-------------------------------------------------------------|
B-----------7--------------8-7--------------------------------|
G---7-9-9-9--9-7~----7-9-9-----9-7~---------------------------|
D-9----------------9------------------7----7-9~-10-9-10-7~----|
A---------------------------------------10-----------------9~-|
E-------------------------------------------------------------|

e-----------------------------------------------------------------------|
B-----------7---------------8-7-----------------------------------------|
G---7-9-9-9---9-7~----7-9-9-----9-7~--------------------7~-9~--12~-9-9~-|
D-9-----------------9------------------7----7-9~-10-9-10----------------|
A----------------------------------------10-----------------------------|
E-----------------------------------------------------------------------|
Login or Register to remove this ad.