Cid's Theme (Final Fantasy VII) Guitar Tab

Submitted: Feb 12, 2013 by Zack1997 (Last updated: Feb 12, 2013)

4
Average: 4 (1 vote)
Download | Listen
Game: Final Fantasy VII
Composer(s): Nobuo Uematsu
Style: Transcription
Series: Final Fantasy

AutoScroll: Slow | Medium | Fast
Mi primera tablatura espero que les guste :D

e------------------------------------------------------------
B------------------------------------------------0-1~--------
G------------0---0~~--0-2-3-0-----------2-0-2~-2------2------
D--------------3--------------0~~~--0-0-----------------2~~~-
A-3-3-3--3-3-------------------------------------------------
E------------------------------------------------------------

e-------------------------------------------------------------
B-----------0-1~-3-4~~--3~-6-4~-1-------3~--------------------
G-2--0--2~~-----------------------0~~~-----3-0~~~~---1-0~~~~~-
D--------------------------------------------------3----------
A-------------------------------------------------------------
E-------------------------------------------------------------

e-3-1-3-4-6~~~---4-3-4-6-3---11~~~---10-8-10-11-4~~~~---1-3-4-1-3-6~~~-
B--------------------------4-------------------------------------------
G----------------------------------------------------------------------
D----------------------------------------------------------------------
A----------------------------------------------------------------------
E----------------------------------------------------------------------

e-3-6~~~---4-3-4-6-3---11~~~---10-8-10-11-15-11-8~~~-10-11-11~~~~-
B--------------------3--------------------------------------------
G-----------------------------------------------------------------
D-----------------------------------------------------------------
A-----------------------------------------------------------------
E-----------------------------------------------------------------
Login or Register to remove this ad.

1 comment on Cid's Theme

That first A3 should be

That first A3 should be played once and held until the next note, but it sounds cool to match the rhythm of the drums so I didn't change it.