Ads

Cait Sith's Theme (Final Fantasy VII) Guitar Tab

Submitted: Feb 22, 2013 by Zack1997

5
Average: 5 (1 vote)
Download | Listen
Game: Final Fantasy VII
Composer(s): Nobuo Uematsu
Style: 2 or more instruments, Transcription
Series: Final Fantasy

AutoScroll: Slow | Medium | Fast
Guitar 1

e--------------------------------------------------------
B-1---1-0~--------1---1-0~--3/4-2---1-----1--------------
G-----------3\1-------------------1---3------------------
D---------------2-----------------------4----------------
A--------------------------------------------------------
E--------------------------------------------------------

e--------------------------------------------------------
B-1---1-0~--------1---1----------------------------------
G-----------3\1---------3~-------------------------------
D---------------2----------------------------------------
A--------------------------------------------------------
E--------------------------------------------------------

e-3---1-1-1---3~--1-1---1-2-3-4~--1-2-3-4-3-2-0--11-9----
B--------------------------------------------------------
G--------------------------------------------------------
D--------------------------------------------------------
A--------------------------------------------------------
E--------------------------------------------------------

e-3---1-1-1---3~--1-1---1-2-3-4~--1-2-3-4-3-2-1----------
B--------------------------------------------------------
G--------------------------------------------------------
D--------------------------------------------------------
A--------------------------------------------------------
E--------------------------------------------------------

e-3---1-1-1---3~--1-1---1~--3~--4~--6~--8----------------
B--------------------------------------------------------
G--------------------------------------------------------
D--------------------------------------------------------
A--------------------------------------------------------
E--------------------------------------------------------

e---11-12-8-10------------4-7---4-7-6-4---0-1~-----------
B-8-------------8-7-6-4-6-----6---------4----------------
G--------------------------------------------------------
D--------------------------------------------------------
A--------------------------------------------------------
E--------------------------------------------------------

e--------------------------------------------------------
B-1---1-0~--------1---1-0~--3/4-2---1-----1--------------
G-----------3\1-------------------1---3------------------
D---------------2-----------------------4----------------
A--------------------------------------------------------
E--------------------------------------------------------

e--------------------------------------------------------
B-1---1-0~--------1---1----------------------------------
G-----------3\1---------3~-------------------------------
D---------------2----------------------------------------
A--------------------------------------------------------
E--------------------------------------------------------

e---------1-1---------1-1--------------------------------
B-3-3-4-4-----4-4-3-3-----4-4-3-3------------------------
G--------------------------------------------------------
D--------------------------------------------------------
A--------------------------------------------------------
E--------------------------------------------------------

e--------------------------------------------------------
B-1-1-2-2-4-4-2-2-1-1-4-4-2-2-1-1------------------------
G--------------------------------------------------------
D--------------------------------------------------------
A--------------------------------------------------------
E--------------------------------------------------------

e---------1-1---------1-1--------------------------------
B-3-3-4-4-----4-4-3-3-----4-4-3-3------------------------
G--------------------------------------------------------
D--------------------------------------------------------
A--------------------------------------------------------
E--------------------------------------------------------

e-3~---------1~------------------------------------------
B-----------------------4~---------3~--------------------
G--------------------------------------------------------
D--------------------------------------------------------
A--------------------------------------------------------
E--------------------------------------------------------

e--------------------------------------------------------
B-1---1-0~--------1---1-0~--3/4-2---1-----1--------------
G-----------3\1-------------------1---3------------------
D---------------2-----------------------4----------------
A--------------------------------------------------------
E--------------------------------------------------------

e--------------------------------------------------------
B-1---1-0~--------1---1----------------------------------
G-----------3\1---------3~-------------------------------
D---------------2----------------------------------------
A--------------------------------------------------------
E--------------------------------------------------------




Guitar 2 
                                        (Around 0:06)
e--------------------------------------------------------
B-3/4-2---1-----1----------------------------------------
G-------1---3--------------------------------------------
D-------------4------------------------------------------
A--------------------------------------------------------
E--------------------------------------------------------
                                        (Around 0:16)
e--------------------------------------------------------
B---------------------0----------------------------------
G-1-0---------------1-----3-1----------------------------
D-----4-3---1-0---3-----------2-3~-----------------------
A---------3-----4----------------------------------------
E--------------------------------------------------------

e--------------------------------------------------------
B---------------------0-----0-2-1~-----------------------
G-1-0---------------1-----3------------------------------
D-----4-3---1-0---3--------------------------------------
A---------3-----4----------------------------------------
E--------------------------------------------------------

e--------------------------------------------------------
B---------------------0----------------------------------
G-1-0---------------1-----3-1----------------------------
D-----4-3---1-0---3-----------2-3~-----------------------
A---------3-----4----------------------------------------
E--------------------------------------------------------
                                        (Around 0:56)
e--------------------------------------------------------
B-3/4-2---1-----1----------------------------------------
G-------1---3--------------------------------------------
D-------------4------------------------------------------
A--------------------------------------------------------
E--------------------------------------------------------

e--------------------------------------------------------
B---------------6----------------------------------------
G-3h5-3h6-3h5-3---3h5-6p5-3p0h3--------------------------
D--------------------------------------------------------
A--------------------------------------------------------
E--------------------------------------------------------

e-11-10\9-8-7-9-11-4---4-6-7-6-4-1-4---------------------
B--------------------------------------------------------
G--------------------------------------------------------
D--------------------------------------------------------
A--------------------------------------------------------
E--------------------------------------------------------

e--------------------------------------------------------
B---------------6----------------------------------------
G-3h5-3h6-3h5-3---3h5-6p5-3p0h3--------------------------
D--------------------------------------------------------
A--------------------------------------------------------
E--------------------------------------------------------

e-------12-15-13-------18-15-------15----13-11-----------
B-13-15----------15----------16-------15-------13-11-13~-
G-------------------15----------16-----------------------
D--------------------------------------------------------
A--------------------------------------------------------
E--------------------------------------------------------

Repeat from the beginning.
Login or Register to remove this ad.