Ahead On Our Way (SongeLeReveur Version) (Final Fantasy VII) Guitar Tab

Submitted: Aug 12, 2010 by ForestMarth (Last updated: Aug 13, 2010)

5
Average: 5 (1 vote)
Download | Listen
Game: Final Fantasy VII
Composer(s): Nobuo Uematsu
Style: 2 or more instruments, Arrangement, Natural harmonics, Transcription
Series: Final Fantasy

AutoScroll: Slow | Medium | Fast
                     Final Fantasy VII - Ahead On Our Way                       

Composed by : Nobuo Uematsu

Arranged by : SongeLeReveur

Tabbed by : ForestMarth

Platform : PlayStation


I'm sorry but rythm is not respected (here and in the Guitar Pro file).
Don't hesitate to take this tab and put it rythm ! :-)
Look at SongeLeReveur video to hear the rythm.


I wrote names of chords in the tab of the Guitar 1.
It refers to the chord chart given by SongeLeReveur in the description of his video.
Here is the chord chart :

| Gmaj7 | E-7 | A-7 D7 | B-7 | Cmaj7 C-7 | Gmaj7 E-7 | A-7 | A-7b5 D7#9 |
| Gmaj7 | E-7 | A-7 D7 | B-7 | Cmaj7 C-7 | Gmaj7 E-7 | A-7 D7 | Gmaj7 | % |

| Gmaj7 | E-7 | A-7 | D7 | B-7 | E-7 | A-7 | D7 |
| Gmaj7 | E-7 | A-7 | D7 |

| Gmaj7 | E-7 | A-7 D7 | B-7 | Cmaj7 C-7 | Gmaj7 E-7 | A-7 | A-7b5 D7#9 |
| Gmaj7 | E-7 | A-7 D7 | B-7 | Cmaj7 C-7 | Gmaj7 E-7 | A-7 D7 | Gmaj7 | % |


NOTE : "%" here means Gmaj7 (I didn't write "%" in the tab of the Guitar 1).




Guitar 1



          
E||-----------------0--------------------------------------0---------
B||------------3-----------3---------3----------------3--------------
G||-------5---------------------5----------------5-------------------
D||---------------------------------------5--------------------------
A||--0---------------------------------------------------------------
E||------------------------------------------------------------------


                                              Gmaj7                 
  ^                                                                   
       
---------------------------------------5------------0----7----7----
--4---------------------4----4---------4------0----------7----7----
--5----5----------------5----5---------5------2----------7----7----
--5---------5-----------4----4----4----4------0----------5----5----
--0--------------0------5----5-------------------------------------
----------------------------------------------3--------------------


       E-7                                          A-7             
       
--3----2S----5----5------3---------3-------------------------------
--3----0-----5----5------3--------------3-----------1---------1----
--2----0-----4----4------2---------------------2----0--------------
--2-------------------------------------------------2--------------
----------------------------------------------------0----0---------
-------0-----0----0------0----0------------------------------------


       D7                            B-7                                
       
-------------------------------------------2------2----5----5---------
------------------------7-----0------------3------3----3----3---------
--0----5----5-----------5----(5)-----------2------2----2----2---------
-------4----4-----------4-----4---------------------------------------
-------5----5----5------5-----5-----(2)----2-----------2----2----2----
----------------------------------------------------------------------


       Cmaj7 C-7                   Gmaj7                  E-7        
       ^                                                               
       
--2----0----------3------5----3--------------------------------2----
--3----0----------4------4----4----0-----0--------------------------
--2----0----------3------3----3----2--------------------------------
-------2---------------------------0------------0-------------------
--2----3-----3-----------3----3-------------------------------------
-----------------------------------3-----------------3----0---------


            A-7                                                      
       
------------------------------------------------------------------
--0---------1----3----------------------------3-------------------
-------0----0-----------5--------------5-----------5--------------
------------2----------------5--------------------------5---------
------------0----0----------------0--------------------------0----
------------------------------------------------------------------


  A-7b5           D7#9             Gmaj7                              
       
-------------------------5----8---------------------------7----7----
--4----------4----4------4----7----0-----0----------------7----7----
--5----------5----5------5----8----2----------------------7----7----
--5----------5----4------4----7----0------------0---------5----5----
--0-----0----0----5-------------------------------------------------
-----------------------------------3-----------------3--------------


  E-7                                  A-7              D7         
      
--3----5----5-----------2-----------------------------------------
--3----5----5----------------0---------1-----------1--------------
--2----4----4---------------------0----0-----------0---------5----
---------------------------------------2-----------2---------4----
---------------------------------------0------0---------5----5----
--0----0----0----0------------------------------------------------


            B-7                                Cmaj7 
       
------------2-----7--------7-----10-----10-----12----
-------7----3-----7--------7------7------7-----12----
-------5----2----(7)------(7)----(7)----(7)----12----
-------4---------(7)------(7)----(7)----(7)----10----
--5----5----2----------------------------------------
-----------------------------------------------------


         C-7                     Gmaj7       E-7                             
        
--10----11----11----10------8----7-----3-------------2----0h----2p----0----
--10-----8-----8-----8------8----7-----3-------------0---------------------
---9-----8-----8-----8------8----7-----2-------------0---------------------
---9-----8-----8-----8------8----5-----2-----------------------------------
---------------------------------------------------------------------------
--------------------------------------------(0)------0---------------------


            A-7         D7                                Gmaj7       
       
---------------------------------------------------------------------
--0--------------1-----------------------7----------------0----------
-------0---------0----------------(5)-----------5---------2----------
-----------------2-----------4-----------------------4----0----------
------------0-----------5--------------------------------------------
----------------------------------------------------------3-----3----


       
------------------------------------------------------------------
--0---------0-----------0---------0-----------0---------0---------
--2---------2-----------2---------2-----------2---------2---------
--0---------0-----------0---------0-----------0---------0---------
------------------------------------------------------------------
-------3---------3-----------3---------3-----------3---------3----


                 Gmaj7                                                
       
-------------------------2-----------------------------------------
--0----------------------3---------3-------------------------------
--2----------------------0--------------0--------------------------
--0----------------------4---------------------4-------------------
-------------------------------------------------------------------
-------0----2----3------------3---------------------3----3----2----


  E-7                             A-7                               
       
-------2----3----3-----------5------------------------------------
-------0----3----3-----------5----1-----------1-------------------
-------0----2----2-----------4----0----------------0--------------
----------------------------------2---------------------2---------
----------------------------------0----0---------------------0----
--0---------0----0------0----0------------------------------------


                   D7                                                  
       
--------------------------------------------------------------------
--1---------------------------------7----5--------------------------
--0-----------------------5---------5----5-----------5--------------
--2-----------------------4---------4----4-----------4--------------
-------(0)----4----5-----------5----5----5------5-------------------
----------------------------------------------------------0----3----


  B-7                                              E-7               
        
-------2---------2------5----5---------2----------------3-----------
-------3---------3------3----3---------3----------------3-----------
-------2---------2------2----2---------2----------------2-----------
--------------------------------------------------------------------
--2---------2-----------2----2----2----2------2---------------------
---------------------------------------------------0---------(0)----


                 A-7                                         D7    
       
--5---------3------------------------------------------------8----
--5---------3----1---------------------3--------------------------
--4---------2----0----------------5-----------5-------------------
-----------------2-----------5---------------------5--------------
-----------------0------0-------------------------------0---------
-------0----------------------------------------------------------


                                                               Gmaj7       
        
---------------------------------8----------------------------------------
--10-----------------------10---------10-----------------------------0----
--------11---------11-----------------------11-----------------------2----
--------------0-------------------------------------12---------------0----
--------------------------------------------------------------------------
----------------------------------------------------------0----3----------


                        E-7                                   A-7   
       
------------7----7-----------3----5-----------2----3s----2---------
-------0----7----7-----------3----5-----------0--------------------
-------2----7----7-----------2----4-----------0--------------------
-------0----5----5-------------------------------------------------
--------------------------------------------------------------0----
--3---------------------0----0----0----0------0--------------------


                                       D7                           
       
--------------------------------------------------------7----7----
--1----1--------------------------------------7----5----5----5----
--0----4----4---------------------4----5------5----5----5----5----
--2----2---------2-----------2---------4------4----4----4----4----
--0----0----------------0--------------5------5----5--------------
------------------------------------------------------------------


  Gmaj7                            E-7                           A-7    
        
--7\----3----5----3------5----3----2S----5------2----3s----2-----------
--7\----3----5----3------5----3----0-----0------0----------------------
--7\----2----4----2------4----2----0-----0------0----------------------
--5\----2----4----2------4----2----------------------------------------
----------------------------------------------------------------(0)----
-----------------------------------0-----0------0----------------------


                 D7                     B-7                           
       
------------------------------------------------2----5----5----5----
--1----1----1-----------------------------------3----3----3----3----
--0----4----0----5------5---------7-------------2----2----2----2----
--2----2----2----4------4---------4---------------------------------
--0----0----0----5------5----5----5----(2)------2----2----2----2----
--------------------------------------------------------------------


       Cmaj7              C-7                   Gmaj7                 
       ^                                                                
       
--2----0-----------------------3----5----3---------------------------
--3----0-----------------------4----4----4------------0---------0----
--2----0-----------------------3----3----3------------2---------2----
-------2----------------------------------------------0---------0----
--2----3-----2s----3------3---------3----3---------------------------
------------------------------------------------3-----3----3----3----


  E-7                          A-7                                         
          NH     NH     NH                                                  
       
-------<>12----<>7----<>5------------------------------------------------
-------<>12----<>7----<>5------1----1-------------------------------3----
-------------------------------0-------------------------------5---------
-------------------------------2---------2----------------5--------------
-------------------------------0--------------0------0-------------------
--0----------------------------------------------------------------------


  A-7b5                                 D7#9             Gmaj7       
       
----------------------------------------------------5----------7----
--------4----4----4----------------------------4----4----0-----7----
--------5----5----5----------------------------5----5----2-----7----
--------5----5----5----------------------------4----4----0-----5----
--0-----0----0----0------3----4----5----5------5--------------------
---------------------------------------------------------3----------


                        E-7                                           
       
--3---------3----5------2----0h----2p----0--------------------------
--3---------3----5------0-----------------------0--------------0----
--2---------2----4------0----------------------------0----0---------
--2----2----2----4--------------------------------------------------
--------------------------------------------------------------------
------------------------0-------------------------------------------


  A-7            D7                    B-7                            
       
---------------------------------------7------7----10----10----8----
-------1----1----7------7---------5----7------7-----7-----7----7----
-------0----0----5------5---------5----7------7-----7-----7----7----
-------2----2----4------4---------4----7------7-----7-----7----7----
--0----0----0----5------5----5----5---------------------------------
--------------------------------------------------------------------


        Cmaj7              C-7                     Gmaj7      E-7        
       
--7----12----10----8------11----11----10----8------7-----5---------3----
--7----12----10----8-------8-----8-----8----8------7-----5---------3----
--7----12-----9----7-------8-----8-----8----8------7-----4---------2----
--7----10-----9----7-------8-----8-----8----8------5-----4--------------
------------------------------------------------------------------------
--------------------------------------------------------------0----0----


            A-7                         D7                    Gmaj7  
        
--3----2------------------------------------------------------------
--3----0----1----1---------------------------------------7----0-----
--2----0----0-----------0---------------------------5---------2-----
------------2----------------------------------4--------------0-----
------------0----------------4h----5----5---------------------------
--0----0------------------------------------------------------3-----


       
-------------------------------------------------------------0----
--0-------------------------------0---------------------0---------
-------2---------------------2---------------------2--------------
------------0-----------0---------------------0-------------------
------------------------------------------------------------------
-----------------3---------------------3--------------------------


               
------------------------------------------|
--0---------------------------------------|
-------2---------2------------------------|
------------0-----------0-----------------|
------------------------------------------|
-----------------------------3------------|




Guitar 2



             
E||--------------------------------------------------------------------------
B||--9g10----8----7----8------10----------------7----------------------------
G||----------------------------------------7-----------9----9---------8g9----
D||---------------------------------8g9--------------------------------------
A||--------------------------------------------------------------------------
E||--------------------------------------------------------------------------


       
--7-----------------------7----9----10----7------7---------6g7----8----
-------10----8----10---------------------------------------------------
-----------------------------------------------------------------------
-----------------------------------------------------------------------
-----------------------------------------------------------------------
-----------------------------------------------------------------------


       
--7-----------------------7--------------------------------------------
-------10----8----10-------------------------------7-------------------
--------------------------------------------7-----------9----9---------
-------------------------------8g9----10-------------------------------
-----------------------------------------------------------------------
-----------------------------------------------------------------------


         
----------------------------------------7----8-----------------------------
---------7----8----10------7g8----10----------------9g10----8----7----8----
--8g9----------------------------------------------------------------------
---------------------------------------------------------------------------
---------------------------------------------------------------------------
---------------------------------------------------------------------------


        
---------------------------------------------------7---------------------
--10----------------7-----------------------------------10----8----10----
---------------7-----------9----9---------8g9----------------------------
--------8g9--------------------------------------------------------------
-------------------------------------------------------------------------
-------------------------------------------------------------------------


       
--7----9----10----7------7----8----6g7----7g8------7---------------------
--------------------------------------------------------10----8----10----
-------------------------------------------------------------------------
-------------------------------------------------------------------------
-------------------------------------------------------------------------
-------------------------------------------------------------------------


       
--7---------------------------------------------------------------------
---------------------------7----------------------------7----8----10----
--------------------7-----------9----9-----------8g9--------------------
-------8g9----10--------------------------------------------------------
------------------------------------------------------------------------
------------------------------------------------------------------------


       
-----------------------------------10----------------10--------------
--8----7----7s----8------8---------------8---------------------------
------------------------------------------------7--------------------
---------------------------------------------------------------------
----------------------------------------------------------------9----
---------------------------------------------------------------------


       
----------------------------------------------------------------------
----------------------------------------------------------------------
-----------------7-----------------------------------------------5----
--5----7----9-----------8g9----5----------------5g6----7----9---------
------------------------------------9----7----------------------------
----------------------------------------------------------------------


       
--------------------------------------------------------------------
---------------------------------------------------------------7----
--9----5---------------------------------------------6----7---------
-----------------7------5--------------7g8------9-------------------
------------7----------------9--------------------------------------
--------------------------------------------------------------------


       
---------------------------------7---------------------------------------
-------7----9g10----8------10--------------------------------------------
--9-----------------------------------9-----------8g9--------------------
---------------------------------------------------------9----10----6----
-------------------------------------------------------------------------
-------------------------------------------------------------------------


       
---------------------------------------8g10------7---------------------
------------------------------------------------------8----6g7---------
------------------------5----7----5-------------------------------9----
--7----6----7----9-----------------------------------------------------
-----------------------------------------------------------------------
-----------------------------------------------------------------------


       
-----------------11g12------8------------------------------------------------
--7------------------------------9g10----8----7------8----10---------9g10----
-------9---------------------------------------------------------------------
-----------------------------------------------------------------------------
-----------------------------------------------------------------------------
-----------------------------------------------------------------------------


       
------------------------------------------------------------------------
--8----7----8----10------------------7----------------------------------
--------------------------------7---------9------9---------10----8g9----
-------------------------8g9--------------------------------------------
------------------------------------------------------------------------
------------------------------------------------------------------------


         
--6g7-----------------------7----9----10----7------7---------8----6g7----
---------10----8----10---------------------------------------------------
-------------------------------------------------------------------------
-------------------------------------------------------------------------
-------------------------------------------------------------------------
-------------------------------------------------------------------------


        
--7g8----7-----------------------7-------------------------------------
--------------10----8------10---------------------------7--------------
---------------------------------------------------7---------9----9----
--------------------------------------9----10--------------------------
-----------------------------------------------------------------------
-----------------------------------------------------------------------


       
----------------------------------------------------7----8-----------------
--------------7----8------10---------7g8----10---------------------9g10----
-------8g9-----------------------------------------------------------------
---------------------------------------------------------------------------
---------------------------------------------------------------------------
---------------------------------------------------------------------------


       
---------------------------------------------------------------------
--8----7----8----10------------------7-------------------------------
--------------------------------7---------9------9---------7----8----
-------------------------8g9-----------------------------------------
---------------------------------------------------------------------
---------------------------------------------------------------------


        
-------6g7-----------------------7----9----9g10------7----7---------8s----
--------------10----8------10---------------------------------------------
--9-----------------------------------------------------------------------
--------------------------------------------------------------------------
--------------------------------------------------------------------------
--------------------------------------------------------------------------


       
--7----7g8----7-----------------------7----------------------------------
-------------------10------8----10------------------------7--------------
-----------------------------------------------------7---------9----9----
-------------------------------------------9h--10------------------------
-------------------------------------------------------------------------
-------------------------------------------------------------------------


       
------------------------------------------------------------10---------
--------------7----8------10----8----7----7s------8----8----------8----
-------8g9-------------------------------------------------------------
-----------------------------------------------------------------------
-----------------------------------------------------------------------
-----------------------------------------------------------------------


        
--10----------------10----------------10----------------10--------------
--------8----(8)------------8----8----------8------8----------8----8----
------------------------------------------------------------------------
------------------------------------------------------------------------
------------------------------------------------------------------------
------------------------------------------------------------------------


                                                         
--10--------------(10)----|
--------8----8------------|
--------------------------|
--------------------------|
--------------------------|
--------------------------|




Tablature Legend
----------------
L - tied note
x - dead note
g - grace note
(n) - ghost note
> - accentuded note
NH - natural harmonic
AH - artificial harmonic
TH - tapped harmonic
SH - semi harmonic
PH - pitch harmonic
h - hammer on
p - pull off
b - bend
br - bendRelease
pb - preBend
pbr - preBendRelease
brb - bendReleaseBend
\n/ - tremolo bar dip
\n - tremolo bar dive
-/n - tremolo bar Release up
/n\ - tremolo bar inverted dip
/n - tremolo bar return
-\n - tremolo bar Release down
S - shift slide
s - legato slide
/ -  slide into from below or out of upwards
\ -  slide into from above or out of downwards
~ - vibrato
W - wide vibrato
tr - trill
TP - tremolo picking
T - tapping
S - slap
P - pop
< - fade in
^ - brush up
v - brush down
Login or Register to remove this ad.

2 comments on Ahead On Our Way (SongeLeReveur Version)

Excelent transcription of

5

Excelent transcription of SongeLeReveur's arrangement, sir! You did a nice job, writing down the work of such great arranger.
Don't mind about the Guitar Pro rythim. ...I can't make it work properly, too. Specially with two instruments.

Congratulations and thank you very much for sharing it with us!

Thank you so much Brave

Thank you so much Brave Toaster for your kind comments :-D
It's really heartwarming to see that people like you appreciate my tabs of SongeLeReveur's arrangements !!