Ads

Ahead On Our Way (Final Fantasy VII) Guitar Tab

Submitted: Apr 23, 2022 by Neil Dobbs (Last updated: Apr 23, 2022)

4.8
Average: 4.8 (5 votes)
Download | No audio :(
Game: Final Fantasy VII
Composer(s): Nobuo Uematsu
Style: Fingerstyle
Series: Final Fantasy

Click here for a video example.

AutoScroll: Slow | Medium | Fast
Composer: Nobuo Uematsu
Arrangement: Nobuyuki Hirakura for Final Fantasy Guitar Solo Collections CD/Book
as performed by Yuji Moriya aka The Classical Rebel on Youtube
Tuning EADGBe
Key: R – (finger) roll B – requires barre 

   R                            B           B    R
e--5-3-2-3-5-------2-0-0--------0-7-5---5---7h8-10-7-7------
B--0-----------0-3-0--------0---------8-7--------7-------7--
G--0-----------0---0------0-----5-------5--------7-----7----
D------------------2--------------------0-------------------
A-------------------------------0---------------------------
E------------------------------------------------0----------
   R       B                 R                     R
e--7-8-7-5-3-----5/7-7-------2-0-----0-----5-------3-5-7-8--
B--5-----------4-------0-1-3-0---3---5-7-8---------4--------
G--5---------3-------0-------0-------5-------------5--------
D--5-------------------------2---------------2p1-0----------
A----------3-----------------------0------------------------
E-----------------------------------------------------------
     R                          R       B   B   R 
e----5-3-2-3-5------2-0-0-------0-7-5---5---7h8-10-7-7------
B----0---------0-3--0--------0—-------8-7--------7-------7--
G----0---------0----0------0----5-------5--------7-----7----
D--0----------------2-------------------0 ------------------
A-------------------------------0---------------------------
E------------------------------------------------0----------
   R                         R
e--7-8-7-5-3-----5/7-7-------2-0-0---0-7-5---5-----2---3-3-
B--5-----------4-------0-1-3-0-------------8-------------0-
G--5---------3-------0-------0-------5-----------5---------
D--5-------------------------2-----------------6-----------
A----------3-------------------------0-------5-------------
E----------------------------------------------------3-----
                                                                      
e---------------------------------------------------------0-------------------5----
B------0------------------0-3---0-----------------------0-1-----------2-------3----
G----0---0-----0------0-2---------0-----------------1-2-----2---2-0-5---5---5---5--
D--0---------0---0--4---------0-----4---2-----2---------------2-----------4--------
A---------------------------2---------2-----2---2---0------------------------------
E----------3--------3---------------0-----0----------------------------------------
                    R                                      B 
e-----------2-----2-5-3-5-7-0---0--------------------------3------------
B------2-3--3-3-5---0-----------1-0-1------------0-1---3-1-3—-----------
G--3-4------4-------0-----------------1-2----1-2-----------4------------
D------------------------------------------0---------0---------5--------
A--2----------------------------0----------------------------5---5---5--
E-------------------0------------------------------2-------3-------3----
                                            v
e------------------0----0------------------------------2--
B--0-------------0---0--1---------1------------------0----
G----0-------0--------------2-------2-0---0--------2------
D------4-2-4---2----------2---2---------4---7----0--------
A-----------------------0-------0-------5-----------------
E------0-------0-------------------------------3----------
 
Login or Register to remove this ad.

2 comments on Ahead On Our Way

Very nice sir! Easy to play

5

Very nice sir!

Easy to play and captured the original perfectly.

Easy flow to this tab!

5

Very good tab! Easy to read and flow with the song, bringing back many nostalgic memories!