Ahead On Our Way (Final Fantasy VII) Guitar Tab

Submitted: Nov 21, 2013 by SixStringDealey

5
Average: 5 (2 votes)
Download | Listen
Game: Final Fantasy VII
Composer(s): Nobuo Uematsu
Style: 2 or more instruments, Transcription
Series: Final Fantasy

AutoScroll: Slow | Medium | Fast
***************************************************************************************
* Generated using Power Tab Editor by Brad Larsen - http://powertab.guitarnetwork.org *
***************************************************************************************
                                AHEAD ON OUR WAY
                          As recorded by Nobuo Uematsu
               (From the 1997 Boxset FINAL FANTASY VII SOUNDTRACK)

Music by Nobuo Uematsu
Arranged / Transcribed by Alex Cowan

Gtr I (D A D G B E) - 'Acoustic'
Gtr II (E A D G B E) - 'Synth Strings' >Gtr II and III are the same guitar. I recommend
Gtr III (E A D G B E) - 'Synth Winds'  >using slight overdrive when Gtr III is cued.
Gtr IV (E A D G B E) - 'Leads'

  
Tempo=66  4/4

   G                  E			 Am        D             Bm
  Gtr I
|----------3--------|---------0-------|----------0--------2---|----------2-------|
|------0--------0---|-----0-------0---|--------1-------3------|------3-------3---|
|----0---0---0----0-|---0---0---0---0-|------2-------2--------|----4---4---4---4-|
|-------------------|-----------------|-----------------------|------------------|
|-------------------|-----------------|--0--------------------|--2---------------|
|--5----------------|-2---------------|------------0----------|------------------|
|				      
| Gtr II                              
|-------------------|-3---------------|-(3)--------2----------|--2---------------|
|--3----------------|-0---------------|--1---------3----------|--3---------------|
|--4----------------|-0---------------|--2---------2----------|--4---------------|
|--5----------------|-2---------------|-----------------------|------------------|
|-------------------|-----------------|-----------------------|------------------|
|-------------------|-----------------|-----------------------|------------------|
|
| Gtr IV                                                             ~
|-/5p3-2h3-5--------|-2p0-0-----------|--0--/7-5---5-----/7-9-|-10-7-7-----------|
|-----------------3-|-----------------|----------8------------|------------------|
|--------------/4---|-----------------|-----------------------|------------------|
|-------------------|-----------------|-----------------------|------------------|
|-------------------|-----------------|-----------------------|------------------|
|-------------------|-----------------|-----------------------|------------------|


   C        Cm7          G       E	    Am                   A°        D
|---------3---------3-|--------3-------0-|------------0-------|------------------2-|
|------5--------4-----|------0-------0---|-------1--------1---|----------1-----3---|
|----5--------3-------|----0-------0-----|-----2---2----2---2-|-------2------2-----|
|---------------------|------------------|--------------------|-----1------0-------|
|--3--------3---------|------------------|--0-----------------|--0-----------------|
|---------------------|--5-------2-------|--------------------|--------------------|
|
|--3--------3---------|--3-------3-------|--3-----------------|--------------------|
|--5--------4---------|--3-------0-------|--1-----------------|--4---------7-------|
|--5--------5---------|--4-------0-------|--2-----------------|--5---------5-------|
|---------------------|----------2-------|--------------------|--7---------7-------|
|---------------------|------------------|--------------------|--------------------|
|---------------------|------------------|--------------------|--------------------|
|                                         
|           ~                                         ~~                   ~
|-/7-8-7--------------|----------2p0-0---|-(0)-0-2h3-/5-------|-(5)---5-/7-8-------|
|--------10-8-----/10-|-12p0-1h3---------|--------------------|-----8--------------|
|---------------------|------------------|--------------------|--------------------|
|---------------------|------------------|--------------------|--------------------|
|---------------------|------------------|--------------------|--------------------|
|---------------------|------------------|--------------------|--------------------|


   G                     E                       Am           D                Bm
|----------3----------|-------------0---------|------------0------------2---|----------2-----------|
|------0---------0----|--------0---------0----|---------1-----------3-------|------3---------3-----|
|----0---0---0------0-|----0------0---0-----0-|-----2-----------2-----------|----4---4---4------4--|
|---------------------|-----------------------|-----------------------------|----------------------|
|---------------------|-----------------------|--0--------------------------|--2-------------------|
|--5------------------|--2--------------------|---------------0-------------|----------------------|
|     
|  <             >       <     >    <    >       <      >     <     >          <             >
|-10-----------(10)---|-10---(10)---9---(9)---|-----------------------------|----------------------|
|-12-----------(12)---|--8----(8)---8---(8)---|-13----(13)---13---(13)------|-15-----------(15)----|
|-14-----------(14)---|--9----(9)---9---(9)---|-12----(12)---14---(14)------|-16-----------(16)----|
|---------------------|-----------------------|-14----(14)---14---(14)------|-16-----------(16)----|
|-10-----------(10)---|--7----(7)---7---(7)---|-12----(12)----0----(0)------|-14-----------(14)----|
|---------------------|-----------------------|-----------------------------|----------------------|
|                                                                                  ~
|-/5p3-2h3-5----------|--2p0---0--------------|--0-/7---5-----5--------/7-9-|-10-7-7---------------|
|-------------------3-|-----------------------|------------8----------------|----------------------|
|---------------/4----|-----------------------|-----------------------------|----------------------|
|---------------------|-----------------------|-----------------------------|----------------------|
|---------------------|-----------------------|-----------------------------|----------------------|
|---------------------|-----------------------|-----------------------------|----------------------|


   C         Cm7          G        E          Am        D           G
|---------3----------3-|--------3--------0-|---------0--------2--|----------3----------|------------3---------|
|------5---------4-----|------0--------0---|-------1--------3----|------0---------0----|--------0-------0-----|
|----5---------3-------|----0--------0-----|-----2--------2------|----0---0---0------0-|------0---0---0---0---|
|----------------------|-------------------|------------0--------|---------------------|----------------------|
|--3---------3---------|-------------------|--0------------------|---------------------|----------------------|
|----------------------|--5--------2-------|---------------------|--5------------------|---5------------------|
|
|  <         >            <        >          <                     <             >
|----------------------|-------------------|---------------------|-10-----------(10)---|-(10)-----------------|
|-15--------15---------|-15-------15-------|-13--------13--------|-12-----------(12)---|-(12)-----------------|
|-12--------12---------|-12-------12-------|-12--------11--------|-12-----------(12)---|-(12)-----------------|
|-14--------13---------|-12-------14-------|-14---------0--------|---------------------|----------------------|
|-15--------15---------|-------------------|--0------------------|-10-----------(10)---|-(10)-----------------|
|----------------------|-15-------12-------|---------------------|---------------------|----------------------|
|
|            ~~                                         ~~              ~~~~~~~~~~~~~~~~~~~~~~
|-/7-8-7---------------|-----------2p0-0---|--0-/7p5p3--5-----2--|--2h3-3--------------|--(3)-----------------|
|--------10--8-----/10-|-12p0-1h3----------|---------------------|---------------------|----------------------|
|----------------------|-------------------|---------------------|---------------------|----------------------|
|----------------------|-------------------|---------------------|---------------------|----------------------|
|----------------------|-------------------|---------------------|---------------------|----------------------|
|----------------------|-------------------|---------------------|---------------------|----------------------|


   G                   E                  Am                  D7sus4   D7
|----------3--------|----------0-------|----------0--------|--------3--------2-|
|------0--------0---|------0-------0---|------1-------1----|------1--------1---|
|----0---0---0----0-|----0---0---0---0-|----2---2---2----2-|----2--------2-----|
|-------------------|------------------|-------------------|--0--------0-------|
|-------------------|------------------|--0----------------|-------------------|
|--5----------------|--2---------------|-------------------|-------------------|
|
| Gtr III
|-10----------------|-12---------------|-------------------|-15-------14-------|
|-12----------------|------------------|-13----------------|-13-------13-------|
|-------------------|-12---------------|-14----------------|-14-------14-------|
|--9----------------|-14---------------|-------------------|-------------------|
|-------------------|------------------|-12----------------|-------------------|
|-------------------|------------------|-------------------|-------------------|
|
|          ~               ~                                  ~~~~~~~~~~~
|-------------------|------------------|----------0--------|-------------------|
|----------3--------|------------------|------0-1---1------|-------------------|
|------2h4-----/4-0-|------------------|--1h2--------------|-------------------|
|--4h5--------------|--4---2-----------|--------------2-/7-|--5--------4-------|
|-------------------|------------------|-------------------|-------------------|
|-------------------|------------------|-------------------|-------------------|


  Bm                    E                      Am                    D7
|----------2---------|-----------0----------|----------0----------|-----------2---------|
|------3---------3---|------0----------0----|------1---------1----|-------1---------1---|
|----4---4---4-----4-|----0----0---0------0-|----2---2---2------2-|-----2---2---2-----2-|
|--------------------|----------------------|---------------------|--0------------------|
|--2-----------------|----------------------|--0------------------|---------------------|
|--------------------|--2-------------------|---------------------|---------------------|
|
| Gtr II
|  <             >      <              >       <             >       <              >
|-14-----------(14)--|-15------------(15)---|-15-----------(15)---|-14------------(14)--|
|-15-----------(15)--|-17------------(17)---|-13-----------(13)---|-15------------(15)--|
|-16-----------(16)--|-16------------(16)---|-14-----------(14)---|-14------------(14)--|
|--------------------|----------------------|---------------------|---------------------|
|--------------------|----------------------|---------------------|---------------------|
|--------------------|----------------------|---------------------|---------------------|
|
|                                ~                     ~
|----------2-----0h2-|-/5p3-5-/7------------|---------------------|---------------------|
|------2h3---3-------|-----------5----------|-/5p0-1--------------|---------0-1----/3p1-|
|--3h4---------------|----------------------|--------0-2----------|-(2)-0-2-------------|
|--------------------|----------------------|---------------------|---------------------|
|--------------------|----------------------|---------------------|---------------------|
|--------------------|----------------------|---------------------|---------------------|

                                                                                D.C. 
   G                 E                   Am                   D           (Return to start)
|----------3-------|----------0-------|------------0-------|-----------2----------||
|------0-------0---|------0-------0---|--------1-------1---|------3----------3----||
|----0---0---0---0-|----0---0---0---0-|-----2----2---2---2-|----2----2---2------2-||
|------------------|------------------|--------------------|----------------------||
|------------------|------------------|--0-----------------|----------------------||
|--5---------------|--2---------------|--------------------|--0-------------------||
|
| Gtrs II, III                                                               >
|-15---------------|-12---------------|-12-----------------|-14------------(14)---||
|-12---------------|-12---------------|-13-----------------|-15------------(15)---||
|-12---------------|-12---------------|-14-----------------|-14------------(14)---||
|------------------|------------------|--------------------|----------------------||
|------------------|------------------|--------------------|----------------------||
|------------------|------------------|--------------------|----------------------||
|
|  ~~                         ~                               ~~       ~
|------------------|------------------|--0-(0)-------------|----------------------||
|--3-----------0---|------------------|--------------1-----|----------------------||
|--4-------------0-|------------------|----------------2p0-|-----------2----------||
|------------------|--4-2-4h5-2-------|--------------------|--4-----/5------------||
|------------------|------------------|--------------------|----------------------||
|------------------|------------------|--------------------|----------------------||


FADE OUT
   G                  E                  Am         D            Bm
|----------3--------|---------0-------|----------0--------2---|----------2--------*|
|------0--------0---|-----0-------0---|--------1-------3------|------3-------3----*|
|----0---0---0----0-|---0---0---0---0-|------2-------2--------|----4---4---4---4--*|
|-------------------|-----------------|-----------------------|-------------------*|
|-------------------|-----------------|--0--------------------|--2----------------*|
|--5----------------|-2---------------|------------0----------|-------------------*|
|
| Gtr II
|-------------------|-3---------------|-(3)--------2----------|--2----------------*|
|--3----------------|-0---------------|--1---------3----------|--3----------------*|
|--4----------------|-0---------------|--2---------2----------|--4----------------*|
|--5----------------|-2---------------|-----------------------|-------------------*|
|-------------------|-----------------|-----------------------|-------------------*|
|-------------------|-----------------|-----------------------|-------------------*|
|								     ~
|-/5p3-2h3-5--------|-2p0-0-----------|--0--/7-5---5-----/7-9-|-10-7-7------------*|
|-----------------3-|-----------------|----------8------------|-------------------*|
|--------------/4---|-----------------|-----------------------|-------------------*|
|-------------------|-----------------|-----------------------|-------------------*|
|-------------------|-----------------|-----------------------|-------------------*|
|-------------------|-----------------|-----------------------|-------------------*|



Tablature Legend
----------------
 h   - hammer-on
 p   - pull-off
 /\  - slide into or out of (from/to "nowhere")
 ~   - vibrato
 <>  - volume swell (louder/softer)

Misc Legend
-----------
 |  - bar
||  - double bar
||o - repeat start
o|| - repeat end
*|  - double bar (ending)
 :  - bar (freetime)
 $  - Segno
 &  - Coda

Notes
-----
Apologies for not submitting each seperate track, but its a lot of manual cut and paste
work on my end. I've arranged everything to be playable by 3 guitars, and each plays
in their corresponding staff through-out, so I hope this format is simple enough.
I also must recommend the power tab to anyone who can use it. I've gone into much 
detail in the powertab's performance notes, plus the whole play-back thing is nice. 
Soo yeah. 3 guitars are capable of nailing every little detail of this tune for those 
interested. :D I've noticed several of my chords are quite different from other tabs 
I've seen. I put a lot of work into making sure to tab every note possible in a 
performable way. I Hope somebody out there finds some use in this thing!
Login or Register to remove this ad.