Ahead On Our Way (Final Fantasy VII) Ukulele Tab

Submitted: Dec 17, 2009 by Stamen47 (Last updated: Oct 12, 2010)

5
Average: 5 (3 votes)
Download | Listen
Game: Final Fantasy VII
Composer(s): Nobuo Uematsu
Style: Arrangement, Fingerstyle
Series: Final Fantasy

AutoScroll: Slow | Medium | Fast
                               Ahead On Our Way                                 


Music by Nobuo Uematsu
Tab by Stamen47


     E  E  E  E  Q    E  E     E  E  Q    Q    Q       E  E  E  E  Q    E  S S  
A||--5--3--2--3--5----------|--2--0--0--------------|--0--7--5-----5-------7-9-|
E||--0-----0----------0-----|--0----------0---------|--1-----5--8--3-----------|
C||--0----------------------|--0-----0---------0----|--2-----5----------2------|
G||--0-----------0-------0--|--2--------------------|--------------4-----------|


   E  E  Q    Q    Q       E  E  E  E  Q    Q       E  E  E  E  E  E  Q     
--10--7--7--------------|--7--8--7--5--3----5----|--7-----------2--0-------|
---0-----7---------0----|--5-----------4---------|-----0--1--3--0----------|
------------------------|--5-----------5----3----|--0-----------------0----|
---0----------0---------|--------5---------------|--0-----------2----------|


  E  E  E  E  E  E  E  E     E  E  E  E  E  E  E  E   
-----0--2--3--5-----------|-----3--5--7--8-----------|
--1--------------1--3--5--|--4-----------7--5--7-----|
--2--------------2--4--5--|--5--------------------7--|
--------------------------|--------------0-----------|


  E  E  E  E  E  E  E  E     E  E  E  E  E  E  E  E   
--5--3--2--3--5-----------|--2--0--0-----------------|
--0-----0-----------0-----|--0-----0-----------0-----|
--0-----------0-----------|-----0-----0-----0-----0--|
-----0-----0-----0-----0--|--2-----------2-----------|


  E  E  E  E  E  E  E  S S     E  E   E  E   E  E   E  E   
--0--7--5-----5--------7-9-|--10--7---7-------------------|
--1-----5--8--3-----3------|---0---------7p--0---------0--|
--2-----5--------2---------|------------------------------|
--------------4------------|---0--4p--0---------4p--0-----|


                                         ^                          ^           
  E  E  E  E  E  E  E  E     E  E  E  E  E  E  E  E     E  E  E  E  E  Q    E   
--7--8--7--5--3-----5-----|--7-----------2--0--------|--0--7--5--3--5-------2--|
--5-----5-----4-----1-----|-----0--1--3--5-----3-----|--1-----------3----------|
--5--------5-----------2--|--0-----2--4--4--------4--|--2--7--5--4--5----------|
-----5-----------0--------|--0-----------------------|--------------4--0-------|


  E  E  E  E  E  E  E  E     E  E  E  E  E  E  E  E   
--2--3--3-----------------|--------------------------|
--------0-----------0-----|--------0-----------------|
--0-----------0-----------|--0-----------0-----4-----|
-----0-----0-----0-----0--|-----0-----0-----0-----0--|


  E   E  E  E   Q    E  E     Q    Q    H           E   E  E  E   E   E  E  E   
--2s--3--5--7--10----7--3--|--2----0-------------|--4s--5--7--8--12p--8--0--5--|
----------------0----------|---------------------|---------------13------------|
---------------------------|------------0--------|---------5-------------5-----|
--5------------------------|--2------------------|--7--------------------------|


  E  E  E  E  E  E  E  E     E   E  E   E  E  E  E  E   
--3-----------2-----------|----------------------------|
--------3-----------3--1--|--0-------------7-----5--7--|
-----2-----2-----2--------|--3s--4--6s--7-----7--------|
--------------------------|----------------0-----------|


  E  E  E  E  Q    Q       E  E  E  E  E  E  Q       E  E  E  E  Q     E  E   
--5--3--5--7--0---------|--0--------------5-------|-----4--5--7--8----10--8--|
--5-----0----------0----|--1--0--1----------------|--------------7----10-----|
--------------0---------|--------2--1--2-----5----|-----4--5--7--9----11--9--|
------------------------|-------------------------|--0-----------------------|


            NH                                           
   E  E     E  E  E  E  E  E     E  E  E  E  Q    E  E   
--10--------------------7--3--|--2--0--2--3--0----------|
--12--------------------8--3--|--0-----3-----5----7--8--|
---0-----<>12-----0-----------|--0----------------------|
------0--------0-----0--------|-------------------------|


   Q    E  E  E  E  E  E     E  E  E  E  E  E  E  E     
--12-------------8--5--3--|--2--------3--5------------||
--13----1--3--5-----7--5--|--3-----3--5--7--------7--*||
--------2--4--5-----------|--2--2-----------5--------*||
--------------------------|--------------0-----0------||




Duration Legend
---------------
W - whole
H - half
Q - quarter
E - 8th
S - 16th
T - 32nd
X - 64th
. - note dotted
|-n-|  - n-tuplets


Tablature Legend
----------------
L - tied note
x - dead note
g - grace note
(n) - ghost note
> - accentuded note
NH - natural harmonic
AH - artificial harmonic
TH - tapped harmonic
SH - semi harmonic
PH - pitch harmonic
h - hammer on
p - pull off
b - bend
br - bendRelease
pb - preBend
pbr - preBendRelease
brb - bendReleaseBend
\n/ - tremolo bar dip
\n - tremolo bar dive
-/n - tremolo bar Release up
/n\ - tremolo bar inverted dip
/n - tremolo bar return
-\n - tremolo bar Release down
S - shift slide
s - legato slide
/ -  slide into from below or out of upwards
\ -  slide into from above or out of downwards
~ - vibrato
W - wide vibrato
tr - trill
TP - tremolo picking
T - tapping
S - slap
P - pop
< - fade in
^ - brush up
v - brush down
Login or Register to remove this ad.

2 comments on Ahead On Our Way

I just added the second half

I just added the second half of this song

had fun learning it. thanks

5

had fun learning it. thanks for the tab