Ads

Aerith's Theme (Final Fantasy VII) Guitar Tab

Submitted: Jan 10, 2020 by guitarsvd (Last updated: Jan 10, 2020)

4
Average: 4 (3 votes)
Download | No audio :(
Game: Final Fantasy VII
Composer(s): Nobuo Uematsu
Style: Arrangement, Artificial harmonics, Fingerstyle, Natural harmonics
Series: Final Fantasy

Click here for a video example.

AutoScroll: Slow | Medium | Fast
Title: Aerith's Theme
SubTitle: Final Fantasy VII
Artist: Cecil Chau (GuitarSVD)
Music: Nobuo Uematsu
Tempo = 80
Guitarra

Legend
L - tied note
x - dead note
h - hammer on/pull off
b - bend
s - slide
~ - vibrato
g - ghost note
> - accentuated note
t - trill
M - palm mute
. - staccato
P - popping (bass)
S - slapping (bass)
+ - tapping
W - wide vibrato
< - fade in
w - whammy bar
= - tremolo picking
v - brush up
^ - brush down
V - pick stroke up
n - pick stroke down

                                                                   
E |--2----------------------------|-------------------------------|
B |--------3----------------------|--1----------------------------|
G |-----2-------------------------|-----2-------------------------|
D |--------------------------0----|--------2-----------------2----|
A |-------------------------------|-------------------------------|
D |-------------------------------|-------------------------------|

                                              
--2-----------0----------------|-----0-------|
--------3--2-----3--0--2-------|-------------|
-----2-------------------------|--2----------|
--------------------------0----|--------2----|
-------------------------------|-------------|
-------------------------------|-------------|

                                         
--------10------------------------------|
-----10-------------------------10-10---|
--11-------------------------11-11-11---|
--------------------------0-------------|
----------------------------------------|
----------------------------------------|

                                                                 
--8-----5-------------------------------------------------------|
--------------5L----------------------5--------5----------------|
--------------------------------------5-----7--------5--5-------|
--------------------------------------------------------9--7----|
--------------------------------------------------0-------------|
----------------------------------------------------------------|

                                                             
--------------1--0-----0----------------|-------------------|
--3-----------------3-------------------|--3----------------|
-----------------------------3--3-------|--------3--3-------|
-----------------------------3----------|--------7--5-------|
--------------------------1--------1----|-------------------|
----------------------------------------|-----5--------5----|

                                
--------------0h-2--------0----|
--3--------3--------3h-2-------|
--------2----------------------|
-------------------------------|
-------------------------------|
-----0-------------------------|

                                                     
-----------------------0----------------------------|
--------------------3-----3-------------------------|
-----------------------------2-----2-----2----------|
--------------------------------5-----4-----0-------|
-----------------------------------------------4----|
--------------------------0-------------------------|

                                                     
--2-----------------2--3--------------2-------------|
--------------------------------3--------3----------|
-----------------------------------4--------4-------|
-----------------------------4--------------4-------|
--------------------------2-------------------------|
----------------------------------------------------|

                                                     
--5-----------------7--9--------------2-------------|
--------------------------------2--------2----------|
-----------------------------------2--------7--9----|
-----------------------------4----------------------|
--------------------------0-------------------------|
----------------------------------------------------|

                                         
--10-7-----3----------------------------|
--------------------0--------0----------|
-----------------------0--7-----4-------|
-----------------0-----------------0----|
----------------------------------------|
--------------5-------------------------|

                                                                             
--5--7--5L----5-----------------------5-------------------------------------|
--------------------------------------------7-----------5-----7-------------|
--------------------------------------------------------------------7-------|
-----------------------------------------------------7-----7-----7----------|
----------------------------------------------------------------------------|
--------------------------------------------------0-------------------------|

                                
-------------------------------|
--2--------------2-------------|
--------------2-----2----------|
-----------4-----------4-------|
--------4-----------------4----|
-----4-------------------------|

                                                     
----------------------------------------------------|
----------------------------------------------------|
--------------------4-----4-------------------------|
-----------------------7--------4--6--7-------------|
-----------------------------4-----------4L-4-------|
--------------------------4-------------------------|

                                
--------------3----------------|
-----------0-----0-------------|
--------0-----------0-----0----|
--0L-------------------0-------|
-------------------------------|
-----5-------------------------|

                                                     
----------------------------------------------------|
--------------------------------0-------------------|
--------------------2-----2-----------0-------------|
--0--------------------4-----0-----0-----0L-0-------|
----------------------------------------------------|
--------------------------5-------------------------|

                                
-----------------0-------------|
-------------------------------|
--------------6-----------6----|
--------6h-7--------6h-7-------|
--4L---------------------------|
-----4-------------------------|

                                                     
----------------------------------------------------|
--------------------0--2----------------------------|
--7-----------------1--2-----------2--6-------------|
--------------------------------6--------6----------|
--4--------------------------4----------------------|
--------------------------4-------------------------|

                                                             
-----------------3-------------|-----10-9--7----------------|
--3--------------------3L------|-----0--0--0--3-------------|
--4-----------4-----4--4L------|--------------4--------0----|
--------0--5-----------5L------|--------------5-------------|
-------------------------------|--------------------5-------|
-----5-------------------------|-----------------5----------|

                                                                            
--5--2----------------------------|-----10-9--7----------------------------|
--------------------5-----3-------|-----0-----0--------------0-------------|
--------2--------2-----2--2-------|--------------------0-----------0-------|
--------0-----0-------------------|-----------------0-----0-----0----------|
----------------------------------|----------------------------------------|
--------------0-------------------|--------------5-------------------------|

                                                     
--9--------14-14------------------------------------|
-----------10-10----------10-------------10---------|
--------------------------11----11----------11------|
--------------------------------11-------------11---|
--------------------------------9-------------------|
----------------------------------------------------|

                                                                            
-----10-9--7----------------------------|--5--0L---------------------------|
--------------------7-----7-----7-------|--2-----------------0--3L-0-------|
-----------------7-----7-----7----------|-----------------0-----------0----|
----------------------------------------|-----------2--4-------------------|
----------------------------------------|--------0-------------------------|
--------------9-------------------------|----------------------------------|

                                         
--0-----------------0--2----------------|
--------------------------3-----2-------|
--------------------------2-----2-------|
-----------------------------2----------|
--------------------------0-------------|
----------------------------------------|

                                                     
--3--2--0-------------------------------------------|
-----------3L-3L-------------------------------0----|
--------------------------------------------0-------|
-----------------------------------------0----------|
----------------------------------------------------|
--------------------------5L----------5-------------|

                                                     
--------------3h-2-----0----------------------------|
--3-----------------3-----------0--3L-3-------------|
-----------------------------0----------------------|
----------------------------------------------------|
--------------------------0-------------------------|
----------------------------------------------------|

                                                    
-------------------------------|-----10-9--7-------|
--3--------------3L------------|-----12-10-8--3----|
--------------2----------------|-------------------|
-----------0-------------------|-------------------|
--------0----------------------|-------------------|
-----0-------------------------|-------------------|

                                                           
--5-----------------------0-----------------0--2----------|
--3-----------------------2-------------------------------|
----------------------------------------------------------|
----------------------------------------------------------|
-----------------------------------------------------0----|
--------------------------------------------------5-------|

                                                                   
--3--2--0----------------------|-----10-7--5----------------------|
-----------3L-3----------------|--------------8-----0-------------|
-------------------------------|-----------------7-----0----------|
--------------------------0----|-----------------------------0----|
--------------------------2----|----------------------------------|
-------------------------------|--------------------------5-------|

                                                                
--2----------------------------|-------------------------------|
--------3----------------------|--1----------------------------|
-----2-------------------------|-----2-------------------------|
--------------------------0----|--------2----------------------|
-------------------------------|--0----------------------------|
-------------------------------|-------------------------------|

                                                       
--2-----------0----------------|-----0----------------|
--------3--2-----3--0--2-------|----------------------|
-----2-------------------------|--2-------------------|
--------------------------0----|--------2-------------|
-------------------------------|-----------------0----|
-------------------------------|----------------------|

                                                     
--------10------------------------------------------|
-----10-------------------------10----10----10------|
--11----------------------------11-11-11-11-11-11---|
--------------------------0-------------------------|
----------------------------------------------------|
----------------------------------------------------|

                                                                             
--8-----5-------------------------------------------------------------------|
--------------5L----------------------5--------5----------------------------|
--------------------------------------------7--------5--5-----5--5----------|
-----------------------------------------------------------10-9-----7-------|
--------------------------------------------------0-------------------------|
----------------------------------------------------------------------------|

                                                   ^
--------------1--0-----0----------------------------|
--3-----------------3--------------3----------------|
--------------------------------3-----3-------------|
-----------------------------3--------3-------------|
--------------------------1-----------------1-------|
----------------------------------------------------|


-------------------------------|
--3----------------------------|
-----------3-----3-------------|
-----------7-----5-------------|
--------5-----5-----5----------|
-----5-----------------5-------|


-----------------------5-----0h----2-------------------------------------------|
--3--------------------------------------3h----2-----------0-----------0-------|
-----------------------------------------------------2-------------------------|
--------------0--------------------------------------------------4-------------|
-------------------------------------------------------------------------------|
-----0-------------------------------------------------------------------------|


-----------------------0----------------------------------------|
--------------------3-------------------------------------------|
--------------------------2-------------------------------------|
-----------------------------2h-4--0----------------------------|
--------------------------------------4h-0--2-----0-------------|
--------------------------0--------------------4-----0----------|


--2-----------------2--3----------------------------------------|
--------------------------------3--2--------3h-2-----3----------|
-----------------------------------------4--------4-----4--2----|
-----------------------------4--------4-------------------------|
--------------------------2-------------------------------------|
----------------------------------------------------------------|


--5-----------------7--9----------------------------------------|
--------------------------------3--2--------3h-2-----0----------|
-----------------------------------------2--------2-------------|
-----------------------------4--------4-----------------9--11---|
--------------------------0-------------------------------------|
----------------------------------------------------------------|


--10-7-----3----------------------------------------|
--------------------0--------0--------0-----0-------|
-----------------------0--7-----0--------0----------|
-----------------0-----------------0-----------0----|
----------------------------------------------------|
--------------5-------------------------------------|


--5--7--5L----5-----------------------5-----------------------------------------
--------------------------------------------7-----------------------------------
--------------------------------------------------------------------------7-----
-----------------------------------------------------------7--------7-----------
--------------------------------------------------------------------------------
--------------------------------------------------0-----------------------------


--------------------------------------------|
5-----7-----------5-------------------------|
------------------------7-------------------|
------------7-----------------7-----0-------|
--------------------------------------------|
--------------------------------------------|


-------------------------------------------|
-------------------------------------------|
--6--------------------6-------------------|
-----------4--7--6h-7-----6h-7--4--7-------|
--------4-----------------------------4----|
-----4-----------------4-------------------|


----------------------------------------------------------------|
----------------------------------------------------------------|
--------------------4-----4-------------------------------------|
-----------------------7--------4--7--6h-7--7--6h-7--4----------|
-----------------------------4--------------------------4-------|
--------------------------4--------------------------------4----|


--------------------------------14-17-15-14-------------------------------------
--------------------7--8-----15-------------15----------0--------------------15-
-----------------7--------14-------------------14----0-----------------------14-
--0-----------7-----------------------------------------------------0-----------
-----------------------------------------------------------0--------------------
--------------------------------------------------5-----------------------------


--------|
--------|
--------|
--------|
--------|
--------|


--3--------2-----------------2--------0t----------------------0-----------------
--------------------3-----------------------------------------------------3-----
--------------------------------------------------2-----------------------------
--------------------------------------------------------------------------------
--------------------------------------------------------------------------------
--------------------------------------------------------------------------------


------------------------------5-----------------2-------------------------------
---------------------------------------------------------------------------0----
------------------------------------------------------------------0-------------
------------------------------------------------------------------------------0-
--------------------------------------------------------------------------------
--------------------------------------------------------------------------------


------------------------|-----0----------------------------------------|
----------0--------0----|----------------------------------------------|
-0-----0--------0-------|--6--------------6--------6--------6----------|
----0--------0----------|-----------6h-7-----6h-7-----6h-7-----6h-7----|
------------------------|----------------------------------------------|
------------------------|--------4-------------------------------------|


----------------------------------------------------------------|
--------------------0--2----------------------------------------|
--7-----------6-----1--2----------------------------------------|
--------------------------------6--7--6--------6----------------|
-----------------------------4-----------4--------4L-4----------|
--------------------------4-----------------4-------------------|


--------------------------------------------------3-------------------------|
--3-----------------------------0--3--------------------------3-------------|
--4--------------------------------------------4-----4-----4--------0--0----|
-----------------------------0-----------0--5-----------5-------------------|
----------------------------------------------------------------------------|
--------------------------------------5-------------------------------------|


--3--10-9--7----------------|--5--2----------------------------------------|
--------------0--0--0--0----|--------------------------3-------------------|
-----------------0--0--0----|-----------------------2-----2-----2----------|
----------------------------|--------------0--2h-4-----------4-----4h-0----|
--------------------5--0----|-----------0----------------------------------|
-----------------5----------|--------0-------------------------------------|


-----10-9--7----------------------------------------|
-----0-----------------------0--------0--0----------|
--------------------0-----0--------0--------0-------|
-----------------0-----0--------0--------------0----|
----------------------------------------------------|
--------------5-------------------------------------|


--9--------14-14------------------------------------------------|
--------------------------10-------------10-10------------------|
--------------------------11----11----11-------11----11---------|
-----------------------------11----11-------11----11----11------|
--------------------------9--------------------------------9----|
----------------------------------------------------------------|


-----10-9--7----------------------------------------|
-----0--------------------0-----0--0-----0----------|
--------------------0--7-----0--------0-----0-------|
-----------------0-----------------------------0----|
----------------------------------------------------|
--------------9-------------------------------------|


--5--0--------------------------0--2--3--7----|
--2--------------------0--0--0----------------|
--------------------0-------------------------|
--------------2--4----------------------------|
-----------2----------------------------------|
--------2-------------------------------------|


--10----------------0--2-----------10-------9-------------------|
--------------------------------10----10----10------------------|
-----------------------------9-----------9--9-------------------|
----------------------------------------------------------------|
--------------------------0-------------------------------------|
----------------------------------------------------------------|


--3--2--0-----------10L-----------------------------------------|
-----------3L-3-----10L---------0-------------------------------|
--------------------12L------------0----------------------------|
-----------------------------0----------------------------------|
----------------------------------------------------------------|
--------------------------5-------------------------------------|


--10----------3--2-----0----|
--10----------0-----3-------|
--12-------------2--0-------|
----------------------------|
----------------------------|
----------------------------|


-----------------------------------------------------0-----5L------------------|
--3--------------------------------------------3-----------7L------------------|
-----------------------------------------2-------------------------------------|
-----------------------0-----2h----4-------------------------------------------|
--------------0----------------------------------------------------------------|
-----0-------------------------------------------------------------------------|


--5--------10-------9--------7----------|
--7--------------7--------7--------7----|
--------------7--------7--------7-------|
----------------------------------------|
----------------------------------------|
----------------------------------------|


--5-----------------------0-----------------0--2----------|
--3-------------------------------------------------------|
--------------------------------------------------0--2----|
--------------------------------------------------2--4----|
----------------------------------------------------------|
----------------------------------------------------------|


--3--14-12-10L10---------------|--3--7----------------|
--3--15-14-12L12---------------|----------------------|
--------------------------0----|----------------------|
-------------------------------|--------2-----7-------|
-------------------------------|-----------------0----|
-------------------------------|----------------------|


--10L--------------------------|--10------||
-------------------------------|----------||
--------------0----------------|----------||
-----------0-------------------|----------||
--------0--------9L------------|-----9----||
-----0-------------------------|----------||

Login or Register to remove this ad.

2 comments on Aerith's Theme

This feels like it's missing

This feels like it's missing half of the tab.

Like, the chords are correct and in the correct order, but it sounds nothing like the recording from all the missing notes. This is like 60% of the real thing. I understand skipping notes to make an easier version, but it's missing so many important notes that would still make you recognize the original song.

Also the notes that should be played as harmonics are not noted as so.

I would love to have this fixed up as the recording linked at the top is kind of amazing.

@thedstring If you click the

5

@thedstring If you click the link from his video ( https://drive.google.com/file/d/1JNA0Bg-pnsbrmhz65aVtOHNeO2rVS40W/view ) you can download the PDF which has the complete annotation in both sheet and tab

I guess this tab is so good he had to make us work for it a little ( ;