Ads

Wedding Waltz - Duel (Final Fantasy VI) Guitar Tab

Submitted: Feb 26, 2013 by The Ripper

5
Average: 5 (4 votes)
Download | Listen
Game: Final Fantasy VI
Composer(s): Nobuo Uematsu
Style: Arrangement, Fingerstyle
Series: Final Fantasy

AutoScroll: Slow | Medium | Fast
                                              Opera Duel
                                           Final Fantasy VI 
                                       Composed  by Nobuo Uematsu
                                Tabbed by the Ripper  february 25th 2013


     S S E  Q    H           W                   E  E  E  E  E  E  E  E   
E||--0-2-3----------------|-------------------|--------------------------|
B||-----------------------|-------------------|--------------------------|
G||-----------------------|-------------------|-----------------5--4-----|
D||--2---L-------5--------|--L----------------|-----4--5--------------7--|
A||-----------------------|-------------------|--7--------7--6-----------|
E||-----------------------|-------------------|--------------------------|


   E  E  E  E  E  E  E  E     E  E  E  E  E  E   E  E   
|--------------------------|-----------7--------12--7--|
|--------------------5-----|--8-----------7--8---------|
|-----------4-----------4--|-----8--9------------------|
|--5-----------4--5--------|---------------------------|
|-----6--7-----------------|---------------------------|
|--------------------------|---------------------------|


            |----3----|                                     |----3----|     
   H        Q    Q    Q       Q    H.              H        Q    Q    Q     
|---------------------0----|--------------------|--5--------5----3----2----|
|--8--------8----7---------|--------------------|--4--------4----4----4----|
|--6--------6----6----6----|--8-----------------|--5--------5----5----5----|
|--8--------8----8----8----|--9-----------------|--------------------------|
|--------------------------|--------------------|--3--------3----3----3----|
|--6--------6----6----6----|--7-----------------|--------------------------|


   Q    H.              E  E  E  E  E  E  E  E     E  E  E  E  E  E  E  E   
|--0-----------------|--7--6--8--7--2--1--3--2--|--------------------------|
|--------------------|--------------------------|--------------------------|
|--0-----------------|--------------------------|--4--3--5--4--------------|
|--------------------|--------------------------|--------------4--3--5--4--|
|--2-----------------|--------------------------|--------------------------|
|--------------------|--------------------------|--------------------------|


   Q    Q    H           E  E  E  E  H           Q    Q    H         
|--0------------------|--3--3--5--5--7--------|---------------------|
|------------0--------|--5--5--5--5--7--------|-------0----1--------|
|--0----2-------------|--------------8--------|--2----0----2--------|
|--2----2----1--------|--2--2-----------------|--4----2----4--------|
|-------4----2--------|--------4--4-----------|--6------------------|
|---------------------|--------------7--------|---------------------|


   E  E  E  E   H             E  E  Q    Q    E  E     Q    Q    E  E  Q     
|--5--5--7--7---8--------||----------------------0--|------------2--3--2----|
|--7--7--8--8--10--------||---0-----0---------4-----|--4--------------------|
|------------------------||*-----5------------------|-----------------------|
|------------------------||*------------------------|-----------------------|
|--6--6--7--7---9--------||---2--L--2----2----2--L--|--2----2----2--L--2----|
|------------------------||-------------------------|-----------------------|


   E  E  Q    Q    E  E     Q    Q    E  E  Q       E  E  Q    Q    E  E   
|---------------------0--|------------2--3--2----|------------------0--2--|
|--0-----0---------4-----|--4--------------------|--0--1--0---------------|
|-----5------------------|-----------------------|------------------------|
|------------------------|-----------------------|------------------------|
|--2--L--2----2----2--L--|--2----2----2--L--2----|------------------------|
|------------------------|-----------------------|--0--L--0----0----0--L--|


   Q    Q    E  E  Q       E  E  Q    Q    E  E     Q    Q    E  E  Q     
|--0---------3--5--3----|------------------0--2--|--0---------3--5--3----|
|-----------------------|--0--1--0---------------|-----------------------|
|-----------------------|------------------------|-----------------------|
|-----------------------|------------------------|-----------------------|
|-----------------------|------------------------|-----------------------|
|--0----0----0--L--0----|--0--L--0----0----0--L--|--0----0----0--L--0----|


   E  E  E  E  E  E  E  E     E  E  E  E  Q    Q       E  E  E  E  E  E  E  E   
|--5--7--8--5-----3--5--2--|-----0--2---------------|--0--2--3--0--------0-----|
|--------------7-----------|--4--------4--0----4----|--------------1--3-----1--|
|--------------------------|--4--L--2--L--0---------|--0--L--4--L--------0--L--|
|--------------0--L--------|-------------------4----|--2--L--------2--L--------|
|--------7--L--------3--L--|--------------2---------|--------------3--L--------|
|--------------------------|------------------------|--------------------------|


   E  E  E  E  E  E  E  E     E  E  E  E  E  E  E  E   
|--------------------------|--------------0--L--2--L--|
|-----0--1-----------------|--4--------L--------------|
|--2--------2-----0--2-----|--4--------L--4--L--2--L--|
|--------2--L--3--------3--|--------------------------|
|--0--L--------------------|--2--2-----2--2--2-----2--|
|--------------1--L--1--L--|--------------------------|


   E  E  E  E  E  E  E  E     E  E  E  E  E  E  E  E   
|--0--------L--2--L--3--L--|--2--------L--3--L--5--L--|
|--------------------0--L--|--3--------L--3--L--------|
|--0--------L--2--L--------|--------------------5--L--|
|--2--2-----2--2--2-----2--|--0--0-----0--0--0-----0--|
|--------------------------|--------------------------|
|--------------------------|--------------------------|


   E  E  E  E  E  E  E  E     E  E  Q    E  E  E  E     E  E  E  E  E  E  E  E   
|--3--------L--5--L--7--L--|-------------------------|--------------------------|
|--------------------------|-----0--2-------2--0-----|--0--2--3--L-----3--2--0--|
|--4--------L--5--L--7--L--|--3-------------------3--|--------------------------|
|--------------------------|-------------------------|-----------------------0--|
|--------------------------|----------------------1--|--2-----L--1--2-----1-----|
|--3--3-----3--3--3-----3--|--2--2--2-------2--4-----|-----------------2--------|


   E  E  Q    E  E  E  E     E  E  Q    E  E  E  E     H        H         
|--------0-------0--------|-----0--2-------2--0-----|--3--------2--------|
|--2--3-------------3--2--|--3-------------------3--|-----------0--------|
|-------------------------|-------------------------|--3-----------------|
|-------------------------|-------------------0--L--|-----------0--------|
|--4--2--0----------------|--------0----------------|--4-----------------|
|----------------3--2--0--|--1--L-------2--L--------|--------------------|


   H        E  E  Q         H        E  E  Q       W                  
|--1--------2-----L-----||--1--------2-----L----|-------------------||
|--1--------2-----------||--1--------2----------|--0----------------||
|--------------4--3----*||--------------4--3----|-------------------||
|--1--------2-----L----*||--1--------2--L--4----|-------------------||
|-----------------------||----------------------|--2----------------||
|-----------------------||----------------------|-------------------||



          

                         Legend
	             ---------------
			W - whole
			H - half
			Q - quarter
			E - 8th
			S - 16th
			T - 32nd
			X - 64th
			. - note dotted
			|-n-|  - n-tuplets
			L - tied note
Login or Register to remove this ad.

1 comment on Wedding Waltz - Duel

Freakin Awesome!!!

5

Freakin Awesome!!!