Ads

Terra's Theme (Final Fantasy VI) Guitar Tab

Submitted: Jul 25, 2009 by auriplane (Last updated: Oct 28, 2014)

4.714285
Average: 4.7 (7 votes)
Download | Listen
Game: Final Fantasy VI
Composer(s): Nobuo Uematsu
Style: Arrangement, Fingerstyle
Series: Final Fantasy

AutoScroll: Slow | Medium | Fast
               Final Fantasy VI - Terra's Theme GUITAR TAB
                           A.K.A. Tina's Theme

                        Composed by Nobuo Uematsu
     
           Arranged & tabbed by auriplane ([email protected])


This is tuned down a half-step to Eb standard, or Eb-Ab-Db-Gb-Bb-Eb.  
You can also play it in standard tuning, if you'd like.


    Intro


    E E Q   E E E E  E E Q   E E E E  E E Q   E E E E  E E Q   Q   E E
Eb |----------------|----------------|----------------|----------------|
Bb |----1-------1---|----1-------1---|----1-------1---|----1---L-----0-|
Gb |--2-------2---2-|--2-------2---2-|--2-------2---2-|--2---------2---|
Db |2-------2-------|2-------2-------|2-------2-------|2---------------|
Ab |0---------------|0---------------|0---------------|0---------------|
Eb |----------------|----------------|----------------|----------------|


    Part A  (Play twice)


    E E Q   H        H       Q   E E  H       H        H       Q   E E
Eb |--0-------------|----------------|----------------|----------------|
Bb |1---1-----------|--------1---0---|0---------------|--------------0-|
Gb |2---------------|2-------------2-|0---------------|------------2---|
Db |2-------2-------|----------------|2-------2-------|----------------|
Ab |0---------------|----------------|2---------------|3-------2-------|
Eb |----------------|----------------|0---------------|----------------|

    E E Q   H        H       Q   E E  H       H        H       Q   E E
Eb |--0-------------|----------------|--------0-------|----------------|
Bb |1---1-----------|--------1---0---|0---------------|------------1-3-|
Gb |2---------------|2-------------2-|0---------------|----------------|
Db |2-------2-------|----------------|2---------------|----------------|
Ab |0---------------|----------------|2---------------|3-------2-------|
Eb |----------------|----------------|0---------------|----------------|

    E E Q   H        H       Q   E E  H       H        H       Q   E E
Eb |0-3-0-----------|----------------|----------------|----------------|
Bb |1---------------|--------1---3-1-|3---------------|------------1-0-|
Gb |0---------------|0---------------|0-------0-------|----------------|
Db |2-------2-------|----------------|0-------3-------|2-------0-------|
Ab |3---------------|----------------|2---------------|----------------|
Eb |----------------|----------------|3---------------|----------------|

                                                        First Ending

    W                H.          E E  W                H.          E E
Eb |0---------------|1---------------|0---------------|L---------------|
Bb |1---------------|3-----------1-0-|1---------------|L-------------0-|
Gb |2---------------|2---------------|2---------------|L-----------2---|
Db |3---------------|0---------------|2---------------|L---------------|
Ab |----------------|----------------|0---------------|L---------------|
Eb |----------------|----------------|----------------|----------------|

                                                        Second Ending
    
                                                       Q   Q   Q   E E
                                                      |----------------|
                                                      |------------1-3-|
                                                      |----------------|
                                                      |----------------|
                                                      |----------------|
                                                      |----------------|

        Part B


    E E Q   H        H       Q   E E  H       H        H       Q   E E
Eb |0-3-0-----------|----------------|----------------|----------------|
Bb |1---------------|--------1---3-1-|3---------------|------------1-3-|
Gb |0---------------|0-------0-------|0-------0-------|----------------|
Db |2-------2-------|2---------------|0-------3-------|2-------0-------|
Ab |3-------3-------|----------------|2---------------|----------------|
Eb |----------------|----------------|3---------------|----------------|

    E E Q   H        H       Q   E E  H       H        H       Q   E E
Eb |0-3-0-----------|----------------|--------3-------|----------------|
Bb |1---------------|--------1---3-1-|3---------------|--------------0-|
Gb |0---------------|0-------0-------|0-------0-------|------------2---|
Db |2-------2-------|2---------------|0-------3-------|2-------0-------|
Ab |3-------3-------|----------------|2---------------|----------------|
Eb |----------------|----------------|3---------------|----------------|

    E E Q   H        H       Q   E E  H       H        H       Q   E E
Eb |--0-------------|----------------|----------------|----------------|
Bb |1---1-----------|--------1---0---|0---------------|------------1-0-|
Gb |2---------------|2-------2-----2-|0---------------|----------------|
Db |2-------2-------|2---------------|2-------2-------|--------2-------|
Ab |0-------0-------|----------------|2-------2-------|2-------2-------|
Eb |----------------|----------------|0---------------|0---------------|

    W                H.         E E   W                H.        T T T  
Eb |----------------|----------------|----------------|----------------|
Bb |----------------|-----------1-0--|----------------|----------------|
Gb |2---------------|2---------------|2---------------|L---------------|
Db |3---------------|3---------------|2---------------|L---------------|
Ab |3---------------|5---------------|0---------------|L---------3-3-3-|
Eb |1---------------|----------------|----------------|----------------|


        Part C


    W                H       H        W                H.        T T T  
Eb |----------------|0---------------|----------------|----------------|
Bb |1---------------|1-------1-------|----------------|----------------|
Gb |0---------------|--------0-------|2---------------|L---------------|
Db |2---------------|----------------|3---------------|L---------------|
Ab |3---------------|----------------|3---------------|L---------0-0-0-|
Eb |----------------|----------------|1---------------|L---------------|

    W                H       H        W                H.        T T T  
Eb |----------------|1---------------|----------------|----------------|
Bb |3---------------|3-------3-------|0---------------|L---------------|
Gb |2---------------|--------2-------|0---------------|L---------------|
Db |0---------------|----------------|0---------------|L---------------|
Ab |----------------|----------------|2---------------|L---------2-2-2-|
Eb |----------------|----------------|3---------------|L---------------|

    W                H       H        W                H       Q   Q
Eb |0---------------|3-------0-------|----------------|------------0---|
Bb |0---------------|0---------------|1---------------|--------3-------|
Gb |0---------------|--------0-------|2---------------|----------------|
Db |2---------------|----------------|2---------------|----------------|
Ab |2---------------|----------------|0---------------|0-------0-------|
Eb |0---------------|----------------|----------------|----------------|

    H       H        H       H
Eb |----------------|----------------|
Bb |3---------------|----------------|
Gb |2-------2-------|L-------4-------|
Db |3-------3-------|L-------3-------|
Ab |----------------|--------5-------|
Eb |1---------------|----------------|


        Part D
    

    W                W                H       H        H       H
Eb |----------------|----------------|----------------|----------------|
Bb |1---------------|L---------------|0---------------|----------------|
Gb |0---------------|L---------------|0---------------|0---------------|
Db |0---------------|0---------------|0-------0-------|--------0-------|
Ab |----------------|----------------|----------------|----------------|
Eb |3---------------|L---------------|3---------------|----------------|

    W                W                W                W  
Eb |----------------|----------------|5---------------|8---------------|
Bb |----------------|5---------------|5---------------|10--------------|
Gb |5---------------|5---------------|5---------------|9---------------|
Db |7---------------|7---------------|7---------------|7---------------|
Ab |7---------------|7---------------|----------------|----------------|
Eb |5---------------|----------------|----------------|----------------|




Duration Legend
---------------
W - whole
H - half
Q - quarter
E - 8th
S - 16th
T - triplet
. - note dotted


Tablature Legend
----------------
L - tied note
Login or Register to remove this ad.

3 comments on Terra's Theme

Nice

5

Perfect "Terra's theme". This is the Terra's theme i'm gonna go learn. Keep it up.

This is really nice, auri. I

This is really nice, auri. I like that you are doing more solo guitar stuff recently :)

Nice! This should have a

5

Nice! This should have a fingerstyle tag too, right?