Ads

Slam Shuffle (Final Fantasy VI) Bass/Guitar Tab

Submitted: Nov 20, 2011 by auriplane (Last updated: Nov 28, 2015)

4.666665
Average: 4.7 (3 votes)
Download | Listen
Game: Final Fantasy VI
Composer(s): Nobuo Uematsu
Style: 2 or more instruments, Alternate picking, Transcription
Series: Final Fantasy

AutoScroll: Slow | Medium | Fast
                          Final Fantasy VI - Slam Shuffle GUITAR & BASS TAB
                                      Composed by Nobuo Uematsu
                       
                               Tabbed by auriplane ([email protected])



Hey, did anyone ever wonder whether this song was supposed to be called "Slum Shuffle"?  I never really
thought about it before, but it makes sense for Zozo, don't you think?


                                     GUITAR 1 - DISTORTED GUITAR
    Intro

Rest for four measures.

    Part A

e |------5-----------------|2-----2---3-2-----------|------------------------|------------------------|
B |------------4---------5-|----5-----------5-4-----|----------4-5-----------|------1---4-5-----------|
G |2-----------------------|--------------------5-4-|2---------------------1-|2---4-------------------|
D |------------------------|------------------------|------------------------|------------------------|
A |------------------------|------------------------|------------------------|------------------------|
E |------------------------|------------------------|------------------------|------------------------|

e |------5-----------------|2-----2---3-2-----------|------------------------|------------------------|
B |------------4---------5-|----5-----------5-4-----|------------------------|------1-----------------|
G |2-----------------------|--------------------5-4-|2---------4-5---------1-|2---4-----4-2-----------|
D |------------------------|------------------------|------------------------|------------------------|
A |------------------------|------------------------|------------------------|------------------------|
E |------------------------|------------------------|------------------------|------------------------|

e |------8-----------------|5-----5---6-5-----------|------------------------|------------------------|
B |------------7---------8-|----8-----------8-7-----|----------7-8-----------|------4---7-8-----------|
G |5-----------------------|--------------------8-7-|5---------------------4-|5---7-------------------|
D |------------------------|------------------------|------------------------|------------------------|
A |------------------------|------------------------|------------------------|------------------------|
E |------------------------|------------------------|------------------------|------------------------|

e |------5-----------------|2-----2---3-2-----------|------------------------|------------------------|
B |------------4---------5-|----5-----------5-4-----|------------------------|------1-----------------|
G |2-----------------------|--------------------5-4-|2---------4-5---------1-|2---4-----4-2-----------|
D |------------------------|------------------------|------------------------|------------------------|
A |------------------------|------------------------|------------------------|------------------------|
E |------------------------|------------------------|------------------------|------------------------|

    Part B

Rest for seven measures.

e |1715--------------------|------------------------|------------------------|------------------------|
B |----17161514------------|------------------------|------------------------|------------------------|
G |------------17----------|------------------171615|14----------------------|------------------------|
D |------------------------|------------------------|------------------------|------------------------|
A |------------------------|------------------------|------------------------|------------------------|
E |------------------------|------------------------|------------------------|------------------------|


                                         GUITAR 2 - CLEAN GUITAR

    Intro

e |------------------------|
B |------------------------|
G |------------------------|
D |2---2-------2---2-1---2-| x4
A |0---0-3---2-0---0-------|
E |------------------------|

    Part A

e |------------------------|
B |------------------------|
G |------------------------|
D |2---2-------2---2-1---2-| x8
A |0---0-3---2-0---0-------|
E |------------------------|

e |------------------------|
B |------------------------|
G |------------------------|
D |5---5-------5---5-4---5-| x4
A |3---3-6---5-3---3-------|
E |------------------------|

e |------------------------|
B |------------------------|
G |------------------------|
D |2---2-------2---2-1---2-| x4
A |0---0-3---2-0---0-------|
E |------------------------|

    Part B

e |------------------------|------------------------|------------------------|------------------------|
B |------------------------|------------------------|------------------------|------------------------|
G |------2---0-1-----------|2---0-1-----------------|------2---0-1-----------|2---0-1-----------------|
D |------4-----0---2-----2-|4-----0---2-----2-----2-|------4-----0---2-----2-|4-----0---2-----2-----2-|
A |2---2-------------------|------------------------|2---2-------------------|------------------------|
E |0---0-------------------|------------------------|0---0-------------------|------------------------|

e |------------------------|------------------------|------------------------|
B |------3---1-2-----------|3---1-2-----------------|------3---1-2-----------|
G |------4-----0---2-----2-|4-----0---2-----2-----2-|------4-----0---2-----2-|
D |2---2-------------------|------------------------|2---2-------------------|
A |0---0-------------------|------------------------|0---0-------------------|
E |------------------------|------------------------|------------------------|

e |5-3---------------------|------------------------|------------------------|------------------------|
B |----5-4-3-2-------------|------------------------|------------------------|------------------------|
G |------------5-----------|------------------5-4-3-|2-----------------------|------------------------|
D |------------------------|------------------------|------------------------|------------------------|
A |------------------------|------------------------|------------------------|------------------------|
E |------------------------|------------------------|------------------------|------------------------|




                                           BASS - FIVE STRING
    Intro

Rest for two measures.

G |------------------------|------------------------|
D |------------------------|------------------------|
A |------------------------|------------------------| x2
E |5---------4h5---------4h|5---4h5---4h5-----------|
B |------------------------|------------------------|

    Part A

G |------------------------|------------------------|
D |------------------------|------------------------|
A |------------------------|------------------------| x4
E |5---------4h5---------4h|5---4h5---4h5-----------|
B |------------------------|------------------------|

G |------------------------|------------------------|
D |------------------------|------------------------|
A |3---------2h3---------2h|3---2h3---2h3-----------| x2
E |------------------------|------------------------|
B |------------------------|------------------------|

G |------------------------|------------------------|
D |------------------------|------------------------|
A |------------------------|------------------------| x2
E |5---------4h5---------4h|5---4h5---4h5-----------|
B |------------------------|------------------------|

    Part B

G |------------------------|------------------------|------------------------|------------------------|
D |------------------------|------------------------|------------------------|------------------------|
A |------------------------|------------------7-----|------------------------|------------------------|
E |------------------------|------------------------|------------------------|----------------------4-|
B |5---5-5---5-5---5-5---5-|5---5-5---5-5---5-----4-|5---5-5---5-5---5-5---5-|5---5-5---5-5---5-5-7---|

G |------------------------|------------------------|------------------------|
D |------------------------|------------------5-----|------------------------|
A |------------------------|------------------------|------------------------|
E |5---5-5---5-5---5-5---5-|5---5-5---5-5---5-----4-|5---5-5---5-5---5-5---5-|
B |------------------------|------------------------|------------------------|

G |------------------------|------------------------|------------------------|------------------------|
D |7-5---------------------|------------------------|------------------------|------------------------|
A |----7-6-5-4-------------|------------------------|------------------------|------------------------|
E |------------8-----------|------------------8-7-6-|5---------4h5---------4h|5---4h5---4h5-----------|
B |------------------------|------------------------|------------------------|------------------------|




                                           BASS - FOUR STRING 
    
I came up with a way to play it on four-string, too.  The best way I found is to tune the TWO bottom
strings down a whole step, so you're in D-G-D-G tuning, like this:

    Intro

Rest for two measures.

G |------------------------|------------------------|
D |------------------------|------------------------|
G |------------------------|------------------------| x2
D |7---------6h7---------6h|7---6h7---6h7-----------|

    Part A

G |------------------------|------------------------|
D |------------------------|------------------------|
G |------------------------|------------------------| x4
D |7---------6h7---------6h|7---6h7---6h7-----------|

G |------------------------|------------------------|
D |------------------------|------------------------|
G |5---------4h5---------4h|5---4h5---4h5-----------| x2
D |------------------------|------------------------|

G |------------------------|------------------------|
D |------------------------|------------------------|
G |------------------------|------------------------| x2
D |7---------6h7---------6h|7---6h7---6h7-----------|

    Part B

G |------------------------|------------------------|------------------------|------------------------|
D |------------------------|------------------2-----|------------------------|------------------------|
G |------------------------|------------------------|------------------------|----------------------1-|
D |2---2-2---2-2---2-2---2-|2---2-2---2-2---2-----1-|2---2-2---2-2---2-2---2-|2---2-2---2-2---2-2-4---|

G |------------------------|------------------------|------------------------|
D |------------------------|------------------5-----|------------------------|
G |2---2-2---2-2---2-2---2-|2---2-2---2-2---2-----1-|2---2-2---2-2---2-2---2-|
D |------------------------|------------------------|------------------------|

G |2-0---------------------|------------------------|------------------------|------------------------|
D |----2-1-0---------------|------------------------|------------------------|------------------------|
A |----------6-5-----------|------------------5-4-3-|------------------------|------------------------|
E |------------------------|------------------------|7---------6h7---------6h|7---6h7---6h7-----------|

Login or Register to remove this ad.

2 comments on Slam Shuffle

This rocks, can't wait to get

5

This rocks, can't wait to get it down.

Added a four-string version

Added a four-string version of the bass tab (in DGDG tuning)