Ads

Relm's Theme (Final Fantasy VI) Guitar Tab

Submitted: Sep 10, 2020 by ajarthur (Last updated: Sep 18, 2020)

5
Average: 5 (1 vote)
Download | No audio :(
Game: Final Fantasy VI
Composer(s): Nobuo Uematsu
Style: Arrangement, Fingerstyle
Series: Final Fantasy

AutoScroll: Slow | Medium | Fast
-------------------------------------------------------------------------------
                             Relm’s Theme - Final Fantasy III (VI)
-------------------------------------------------------------------------------
Tabbed by: Anders Olsson Aka: Tritoch21 
Put into measures by: ajarthur

Tuning: Standard

       E  E  E  E    Q      Q      Q     E   E   E  E  E  E  E  E  E  E   Q    Q    H
e||----12p11-------|---------------------------|-0--------0--------0----|---------------|
B||----------12p10-|---------------------------|----0--------0--------0-|---------------|
G||*---------------|-13------------------------|-------2--------2-------|-----------1---|
D||*---------------|---------------9---------9-|------------------------|---------------|
A||----------------|--------11-----------11----|------------------------|------2--------|
E||----------------|-0-------------------------|------------------------|-0-------------|

   H        E E  E  E   Q    Q    Q    E  E   E  E  E  E  E  E  E  E   Q    Q    H       W
E|----------4h5--7----|-0-------------------|-0--------0--------0----|-----------------|---|
B|------------------4-|-------------------0-|----0--------0--------0-|-----------------|---|
G|-L------------------|-----------1----2----|-------2--------2-------|-----------1-----|-L-|
D|--------------------|---------------------|------------------------|-----------------|---|
A|-L------------------|------2--------------|------------------------|------2----------|-L-|
E|-L------------------|-0-------------------|------------------------|-0---------------|-L-|

   Q   Q    Q    Q     Q   Q   Q   Q     Q   Q   Q   Q    W     H     E  E  E  E  
E|----------12---11--|-7-----------9---|-5---7---4------|-----|-------12p11-------|
B|-------------------|-----------------|----------------|-----|-------------12p10-|
G|-------------------|-----------------|-6--------------|-----|-------------------|
D|-----9-------------|---------6-------|----------------|-2---|-L-----------------|
A|----------11-------|-----7-----------|-0-----------2--|-----|-------------------|
E|-0-----------------|-----------------|---------0------|-----|-------------------|

   Q    Q    Q    Q     Q    Q    H       Q    Q    Q    Q     W  (D.S.)§  H     E  E  E  E
e|--------------------|-7---------------|-0-----------------|-<12>------||-L-----12p11-------|
B|----------------10--|-----------7-----|-----------0-------|-----------||-------------12p10-|
G|-13-----------------|-----------8-----|------1---------1--|-----------||-------------------|
D|-----------9--------|-----------9-----|-------------------|-----------||-------------------|
A|------11------------|------9----------|-------------------|-----------||-------------------|
E|-0------------------|-7---------------|-0-----------------|-----------||-------------------|

   Q    Q    Q    E  E   E  E  E  E  E  E  E  E   Q    Q    H    H     E E  E  E    
e|---------------------|-0--------0--------0----|--------------|-------4h5--7----|
B|---------------------|----0--------0--------0-|--------------|---------------4-|
G|-13------------------|-------2--------2-------|-----------1--|-L---------------|
D|-----------9-------9-|------------------------|--------------|-----------------|
A|------11--------11---|------------------------|------2-------|-L---------------|
E|-0-------------------|------------------------|-0------------|-L---------------|

   Q   Q   H     Q    Q    H      Q    Q    H      Q   Q    Q    Q     Q    Q    Q    E E 
e|-0-----------|-----------5----|-4--------------||------------------|-0--------------2/4-|
B|-------------|-7---------0----|----------------||-----2----2---/4--|--------------------|
G|---------1---|----------------|----------------||------------------|-----------1--------|
D|-------------|----------------|-----------6----||-L----------------|------2-------------|
A|-----2-------|------6---------|------7---------||-L----------------|-4------------------|
E|-0-----------|-7--------------|-0--------------||-L----------------|--------------------|
					to Coda

   Q    Q    H      Q    Q    Q    Q    Q    Q    Q    Q     Q   Q    Q    Q    Q    Q    Q    Q
e|-4---------7----|-------------------|-4------------------|------------------|-------------------|
B|----------------|-4-----------------|------4-------------|-4-h-5----2-------|------2----2----4--|
G|----------------|-------------------|-----------5--------|------------------|-----------2-------|
D|------2---------|-----------6-------|----------------6---|---------------2--|-----------2-------|
A|-4--------------|------6---------6--|--------------------|-0----------------|-4---------0-------|
E|----------------|-4-----------------|--------------------|------------------|-------------------|

   Q    Q    H      H     H      Q    Q    Q    E E   Q    Q    Q   Q     Q    Q    Q    Q    W
e|----------------|------------|-0--------------2/4-|-4---------7-/-11--|-11----------------|-L-|
B|-0--------------|------------|--------------------|-------------------|-------------------|---|
G|----------------|------------|-----------1--------|-------------------|----------------9--|-L-|
D|-----------2----|-L-----1----|------2-------------|------2------------|-----------9-------|-L-|
A|------2---------|------------|-4------------------|-4-----------------|-------------------|---|
E|-0--------------|------------|--------------------|-------------------|------7------------|-L-|

   Q    Q    Q    Q    H     Q    Q    W       W 2nd time D.S. al Coda   Ф
e|-11-h-12---7----5--|-4-----2----5--|-4-----|-2-----||			|-0-----||
B|-------------------|-2-------------|-2-----|-4-----||			|-0-----||
G|-------------------|-2-------------|-2-----|-4----*||			|-1-----||
D|-------------------|---------------|-2-----|-4----*||			|-2-----||
A|-0-----------------|-2-------------|-4-----|-2-----||			|-2-----||
E|-------------------|---------------|-------|-------||			|-0-----||
Login or Register to remove this ad.