Ads

Phantom Forest (Final Fantasy VI) Guitar Tab

Submitted: Apr 17, 2009 by auriplane (Last updated: Apr 19, 2009)

4.333335
Average: 4.3 (3 votes)
Download | Listen
Game: Final Fantasy VI
Composer(s): Nobuo Uematsu
Style: Transcription
Series: Final Fantasy

AutoScroll: Slow | Medium | Fast
                 Final Fantasy VI - Phantom Forest GUITAR TAB
                             Song by Nobuo Uematsu

                    Tabbed by auriplane ([email protected])


This song is in 6/8 time.  Rest for four measures at the start.


   E  E  E  E  E  E   H           E  E   H.                 (rest)
e |---8--7--5--------|------------------|------------------|------------------|
B |------------8--6--|5-----------------|5-----------------|------------------|
G |------------------|------------5--7--|------------------|------------------|
D |7-----------------|------------------|------------------|------------------|
A |------------------|------------------|------------------|------------------|
E |------------------|------------------|------------------|------------------|

   E  E  E  E  E  E   H           E  E   Q     E  Q.       (Q.)      (rest)
e |---8--7--5--------|------------------|------------------|------------------|
B |------------8--6--|5-----------------|5-----6-----------|------------------|
G |------------------|------------5--7--|---------7--------|L-----------------|
D |7-----------------|------------------|------------------|------------------|
A |------------------|------------------|------------------|------------------|
E |------------------|------------------|------------------|------------------|

   Q     E  Q.       (Q.)      E  E  E   H.                 (rest)
e |12----13-10-------|L--------10-------|------------------|------------------|
B |------------------|------------13-11-|10----------------|------------------|
G |------------------|------------------|------------------|------------------|
D |------------------|------------------|------------------|------------------|
A |------------------|------------------|------------------|------------------|
E |------------------|------------------|------------------|------------------|

                                         E  E  E  E  E  E   H.
e |------------------|------------------|---7--8--10-8--7--|------------------|
B |------------------|------------------|10----------------|10----------------|
G |------------------|------------------|------------------|------------------|
D |------------------|------------------|------------------|------------------|
A |------------------|------------------|------------------|------------------|
E |------------------|------------------|------------------|------------------|

   E  E  E  E  E  E   Q.       E  E  E   Q     E  E  E  E   Q.       Q.
e |---7--8--10-8--7--|------------------|7-----8-----------|------------------|
B |10----------------|10-------10-8--10-|---------8--------|10-------8--------|
G |------------------|------------------|------------------|------------------|
D |------------------|------------------|------------9--10-|------------------|
A |------------------|------------------|------------------|------------------|
E |------------------|------------------|------------------|------------------|

   E  E  E  Q.        E  E  E  Q.        E  E  E  E  E  E   H.
e |---7--8-----------|------------------|---7--8--10-8--7--|------------------|
B |---------8--------|---7--8-----------|10----------------|10----------------|
G |------------------|---------9--------|------------------|------------------|
D |------------------|------------------|------------------|------------------|
A |------------------|------------------|------------------|------------------|
E |------------------|------------------|------------------|------------------|

   E  E  E  E  E  E   Q     E  Q     E   H           E  S S H.          
e |------------------|15----18-17----18-|15----------18-17-|15----------------|
B |---------15-17-18-|------------------|-----------------18------------------|
G |14-16-17----------|------------------|------------------|------------------|
D |------------------|------------------|------------------|------------------|
A |------------------|------------------|------------------|------------------|
E |------------------|------------------|------------------|------------------|
Login or Register to remove this ad.

2 comments on Phantom Forest

I Like It (:

5

I Like It (:

Thank you! It was a request

Thank you! It was a request ^-^