Ads

Johnny C. Bad (Final Fantasy VI) Guitar Tab

Submitted: May 12, 2013 by The Ripper

5
Average: 5 (1 vote)
Download | Listen
Game: Final Fantasy VI
Composer(s): Nobuo Uematsu
Style: Arrangement, Fingerstyle
Series: Final Fantasy

AutoScroll: Slow | Medium | Fast
                                              Johnny C Bad
                                           Final Fantasy VI 
                                       Composed  by Nobuo Uematsu
                                Intro and Outro based on the FFVI Piano Collection 
                                  Tabbed by the Ripper  january 26th 2013
                                          

Triplet Eighth Feel
Low E tuned Up to F.



     E   E   E   E   E  E  E   E     E  E  E  E  E  E  E  E   
E||--13--10----------10--7---------|--7--4--------4--1--------|
B||----------12-------------9------|--------6-----------3--1--|
G||--------------13------------10--|-----------7--------------|
D||--12---------------9------------|--6-----------3-----------|
A||--------------------------------|--------------------------|
F||--------------------------------|--------------------------|


   E  E  E  E  H             E  E  E  E  E  E  E  E     E  E  E  E  E  E  E  E   
|--5--6--7--8--L--------||---5-----6-----5-----------|--5-----6--5--------------|
|--------0--------------||------6-----6-----6-----6--|-----6-----------6-----6--|
|--5--7--8--9--L--------||*--------------------------|--------------------------|
|--3--0-----------------||*--------------------------|--------------------------|
|-----------------------||---------0--L--3--L--5--L--|--6--L--5--L--3--L--0--L--|
|--------8--7--L--------||---0--L--------------------|--------------------------|


   E  E  E  E  E  E  E  E     E  E  E  E  E  E  E  E   
|--5-----6-----5-----------|--5-----6-----------------|
|-----6-----6-----6-----6--|-----6-----6-----6-----6--|
|--------------------------|--------------------------|
|--------------------------|--------------------------|
|--------0--L--3--L--5--L--|--6--L--5--L--3--L--0--L--|
|--0--L--------------------|--------------------------|


   E  E  E  E  E  E  E  E     E  E  E  E  E  E  E  E   
|--6-----8-----6-----------|--6-----8--6--------------|
|-----6-----6-----6-----6--|-----6-----------6-----6--|
|--------------------------|--------------------------|
|--------------------5--L--|--6--L--5--L--------------|
|--------5--L--8--L--------|--------------8--L--5--L--|
|--5--L--------------------|--------------------------|


   E  E  E  E  E  E  E  E     E  E  E  E  E  E  E  E   
|--5-----6-----5-----------|--5-----6--5--------------|
|-----6-----6-----6-----6--|-----6-----------6-----6--|
|--------------------------|--------------------------|
|--------------------------|--------------------------|
|--------0--L--3--L--5--L--|--6--L--5--L--3--L--0--L--|
|--0--L--------------------|--------------------------|


                                                |--3--|   
   E  E  E  E  E  E  E  E     E  E  E  E  E  E  E  E  E   
|--6-----8-----6-----------|-----------------------------|
|-----6-----6--------------|-----6--8--9--L--9--8--6-----|
|-----------------5-----5--|--7-----------------------7--|
|--------------5--L--7--L--|--------0--L--------5-----L--|
|--------7--L--------------|--------------8--L-----------|
|--7--L--------------------|--5--L-----------------------|


   E  E  E  E  E  E  E  E     Q    Q    Q    Q       E  E  E  E  E  E  E  E   
|-----------0-----6--------|--8----6----5----3----|--5-----6-----5-----------|
|--6-----4-----6--------9--|----------------------|-----6-----6-----6-----6--|
|-----5--------------------|----------------------|--------------------------|
|--------------------------|----------------------|--------------------------|
|--------0--L--------------|------------0---------|--------0--L--3--L--5--L--|
|--0--L--------5--L--6--L--|--7----5---------2----|--0--L--------------------|


   E  E  E  E  E  E  E  E     E  E  E  E  E  E  E  E   
|--5-----6--5--------------|--5-----6-----5-----------|
|-----6-----------6-----6--|-----6-----6-----6-----6--|
|--------------------------|--------------------------|
|--------------------------|--------------------------|
|--6--L--5--L--3--L--0--L--|--------0--L--3--L--5--L--|
|--------------------------|--0--L--------------------|


   E  E  E  E  E  E  E  E     E  E  E  E  E  E  E  E   
|--5-----6-----------------|--6-----8-----6-----------|
|-----6-----6-----6-----6--|-----6-----6-----6-----6--|
|--------------------------|--------------------------|
|--------------------------|--------------------5--L--|
|--6--L--5--L--3--L--0--L--|--------5--L--8--L--------|
|--------------------------|--5--L--------------------|


   E  E  E  E  E  E  E  E     E  E  E  E  E  E  E  E   
|--6-----8--6--------------|--5-----6-----5-----------|
|-----6-----------6-----6--|-----6-----6-----6-----6--|
|--------------------------|--------------------------|
|--6--L--5--L--------------|--------------------------|
|--------------8--L--5--L--|--------0--L--3--L--5--L--|
|--------------------------|--0--L--------------------|


                              |--3--|  |--3--|  |--3--|  |--3--|   
   E  E  E  E  E  E  E  E     E  E  E  E  E  E  E  E  E  E  E  E   
|--5-----6--5--------------|--6--6--6--6--6--6--6--6--6--6--6--6--|
|-----6-----------6-----6--|--5--5--5--5--5--5--5--5--5--5--5--5--|
|--------------------------|--------------------------------------|
|--------------------------|--------------------5-----L--7-----L--|
|--6--L--5--L--3--L--0--L--|-----------7-----L--------------------|
|--------------------------|--7-----L-----------------------------|


   |--3--|  |--3--|  |--3--|  |--3--|                                      
  E  E  E  E  E  E  E  E  E  E  E  E      E   E   E   E   E   E   E   E   
|--4--4--4--4--4--4--4--4--4--4--4--4--|--11------10-------8------10------|
|--3--3--3--3--3--3--3--3--3--3--3--3--|--13------11------10------11------|
|-----------------------------0-----L--|--10--10--10--10--10--10--10--10--|
|-----------0-----L--3-----L-----------|----------------------------------|
|--1-----L-----------------------------|----------------------------------|
|--------------------------------------|---0---------------------------L--|


    E   E  E  E  E  E  E  E     Q    H.              H        E  E  E  E   
|---8------6--5--------------|--1-----------------|-----------------------|
|--10------8--6--------3-----|--------------------|--------------1--3--1--|
|------10-----------5-----5--|--2-----------------|-----------------------|
|----------------------------|--1-----------------|-----------------------|
|----------------------------|--------------------|-----------------------|
|----------------------------|--0-----------------|-----------------------|


   Q    H.              H        E  E  E  E     Q    H.            
|--1-----------------|-----------------------|--1-----------------|
|--------------------|--------------1--3--1--|--3-----------------|
|--2-----------------|-----------------------|--1-----------------|
|--1-----------------|-----------------------|--------------------|
|--------------------|-----------------------|--1-----------------|
|--0-----------------|-----------------------|--------------------|


   H        E  E  E  E     Q    H.              H        E  E  E  E   
|-----------------------|--1-----------------|-----------------------|
|--------------1--3--1--|--------------------|--------------1--3--1--|
|-----------------------|--2-----------------|-----------------------|
|-----------------------|--1-----------------|-----------------------|
|-----------------------|--------------------|-----------------------|
|-----------------------|--0-----------------|-----------------------|


   Q    H.              Q    Q    E  E  E  E     Q    H.            
|--0-----------------|--1---------------------|--1-----------------|
|--1-----------------|--3------------1--3--1--|--------------------|
|--3-----------------|--1---------------------|--2-----------------|
|--------------------|------------------------|--1-----------------|
|--3-----------------|--1---------------------|--------------------|
|--------------------|------------------------|--0-----------------|


   H        E  E  E  E     Q    Q    Q    E  E     E  E  Q    E  E  E  E   
|-----------------------|--1--------------------|-------------------------|
|--------------1--3--1--|-----------------------|----------------1--3--1--|
|-----------------------|--2--------------------|-------------------------|
|-----------------------|------------3----2--2--|--L--1-------------------|
|-----------------------|-------3---------------|--------3----0--L--------|
|-----------------------|--0--------------------|-------------------2--L--|


   Q    Q    Q    Q       Q    Q    E  E  E  E     Q    Q    Q    Q     
|--1-------------------|------------------------|--1-------------------|
|----------------------|---------------1--3--1--|--3-------------------|
|--2-------------------|------------------------|--3-------------------|
|----------------------|--3---------------------|-------0----1----2----|
|------------0---------|------------0--L--3--L--|----------------------|
|--0----2---------0----|-------3----------------|----------------------|


   Q    Q    E  E  E  E     Q    Q    Q    Q       Q    Q    E  E  E  E   
|------------------------|--1-------------------|------------------------|
|---------------1--3--1--|----------------------|---------------1--3--1--|
|------------------------|--2-------------------|------------------------|
|------------------------|----------------------|-------3----------------|
|------------------------|--0---------3---------|--0---------1--L--2--L--|
|--0----1----2--L--3--L--|-------0---------3----|------------------------|


   Q    Q    Q    Q       Q    Q    E  E  E  E     Q    Q    Q    E  E   
|--1-------------------|--1---------------------|--1--------------------|
|--1-------------------|--3------------1--3--1--|-----------------------|
|--3-------------------|--1---------------------|--3--------------------|
|----------------------|------------------------|-----------------0-----|
|--3----2----1----0----|------------------------|-------0----3-------3--|
|----------------------|--3----2----1--L--0--L--|--0--------------------|


   Q    Q    Q    E  E     E  E  E  E  E  E  E  E     E  E  E  E  E  E  E  E   
|-----------------------|--5-----6-----5-----------|--5-----6--5--------------|
|-----------------------|-----6-----6-----6-----6--|-----6-----------6-----6--|
|-----------------------|--------------------------|--------------------------|
|-----------------0-----|--------------------------|--------------------------|
|-------0----3-------3--|--------0--L--3--L--5--L--|--6--L--5--L--3--L--0--L--|
|--0--------------------|--0--L--------------------|--------------------------|


   E  E  E  E  E  E  E  E     E  E  E  E  E  E  E  E   
|--5-----6-----5-----------|--5-----6-----------------|
|-----6-----6-----6-----6--|-----6-----6-----6-----6--|
|--------------------------|--------------------------|
|--------------------------|--------------------------|
|--------0--L--3--L--5--L--|--6--L--5--L--3--L--0--L--|
|--0--L--------------------|--------------------------|


   E  E  E  E  E  E  E  E     E  E  E  E  E  E  E  E   
|--6-----8-----6-----------|--6-----8--6--------------|
|-----6-----6-----6-----6--|-----6-----------6-----6--|
|--------------------------|--------------------------|
|--------------------5--L--|--6--L--5--L--------------|
|--------5--L--8--L--------|--------------8--L--5--L--|
|--5--L--------------------|--------------------------|


   E  E  E  E  E  E  E  E     E  E  E  E  E  E  E  E   
|--5-----6-----5-----------|--5-----6--5--------------|
|-----6-----6-----6-----6--|-----6-----------6-----6--|
|--------------------------|--------------------------|
|--------------------------|--------------------------|
|--------0--L--3--L--5--L--|--6--L--5--L--3--L--0--L--|
|--0--L--------------------|--------------------------|


   E  E  E  E  E  E  E  E     E  E  E  E  E  E  E  E   
|--6-----8-----6-----------|--4-----6--4--------------|
|-----6-----6-----8-----8--|-----6-----------6-----6--|
|--------------------------|--------------------0--L--|
|--------------5--L--7--L--|--------0--L--------------|
|--------7--L--------------|--------------8--L--------|
|--7--L--------------------|--5--L--------------------|


   E  E  E  E  E  E  E  E     E  E  E  E  E  E  E  E     Q    Q    Q    E  E   
|--5-----6-----5-----------|--5-----6--5-----1-----1--|--1----1----1-------1--|
|-----6-----6-----6-----6--|-----6--------------------|--4----4----4-------4--|
|--------------------------|--------------------------|--2----2----2-------2--|
|--------------------------|--------------------------|-----------------------|
|--------0--L--------------|--------------0--L--------|-----------------------|
|--0--L--------5--L--6--L--|--7--L--5--L--------2--L--|--0----0----0-------0--|


   E  Q    E  E  E  E  E     Q    Q    Q    E  E   
|--L--1----1--1--1--1--1--|--1----1----1-------1--|
|--L--4----4--4--4--4--4--|--4----4----4-------4--|
|--L--2----2--2--2--2--2--|--2----2----2-------2--|
|-------------------------|-----------------------|
|-------------------------|-----------------------|
|--L--0----0--0--0--0--0--|--0----0----0-------0--|


   |----3----|    |----3----|                               
   Q    Q    Q    Q    Q    Q       E  E  E  E  Q    E  E   
|--L----1----2----3----4----5----|--6--4-----4--6-------4--|
|--L-----------------------------|--------6----------------|
|--L----2----3----4----5----6----|-------------------0--L--|
|--------------------------------|--------0--L--3----------|
|---------------------------0----|-------------------------|
|--L----0----1----2----3---------|--5--L-------------------|


                                    |--3--|              
   Q     E  E  E  E  E  E     E  E  E  E  E  E  E  Q     
|--6----11--8--6--4-----4--|----------------------------|
|--------------------6-----|--6--4----------------------|
|--------0--L--------------|--------5--4--3--1----------|
|--6-----------3--L--0--L--|--------------------3--0----|
|--------------------------|--------0-----L--3--L-------|
|--------------------------|--0--L----------------------|


   E  E  Q    E  E  Q       E  E  E  E  E  E  E  E     E  E  E  E  E  E  E  E   
|------------------------|--------8--------8--------|--6--------6--------6--4--|
|-----4--4----3--1-------|--7--8-----7--8-----7--8--|-----5--6-----5--6--------|
|-----5--5----3--2-------|--------------0--L--------|--------------------0--L--|
|--------0---------------|--------------------7--L--|--------0--L--------------|
|--6----------3--L--0----|--------7--L--------------|--------------7--L--------|
|------------------------|--7--L--------------------|--5--L--------------------|


   E  E  Q    E  E  E  E     Q    E  E  E  E  Q         E  E  E  E  E  E  E  E   
|-----5--5----6--6--L--6--|--5----6--5-----5--1-----||--5-----6-----5-----------|
|-----6--6----6--6--L--6--|--6----6--6-----6--------||-----6-----6-----6-----6--|
|-------------------------|-------------------3----*||--------------------------|
|-------------------------|------------------------*||--------------------------|
|--------0----------------|-------------0-----------||--------0--L--3--L--5--L--|
|--0--L-------5--L--6--L--|--7----5-----------2-----||--0--L--------------------|


   E  E  E  E  E  E  E  E     E  E  E  E  E  E  E  E   
|--5-----6--5--------------|--5-----6-----5-----------|
|-----6-----------6-----6--|-----6-----6-----6-----6--|
|--------------------------|--------------------------|
|--------------------------|--------------------------|
|--6--L--5--L--3--L--0--L--|--------0--L--3--L--5--L--|
|--------------------------|--0--L--------------------|


   E  E  E  E  E  E  E  E     E  E  E  E  E  E  E  E   
|--5-----6-----------------|--6-----8-----6-----------|
|-----6-----6-----6-----6--|-----6-----6-----6-----6--|
|--------------------------|--------------------------|
|--------------------------|--------------------5--L--|
|--6--L--5--L--3--L--0--L--|--------5--L--8--L--------|
|--------------------------|--5--L--------------------|


   E  E  E  E  E  E  E  E     E  E  E  E  E  E  E  E   
|--6-----8--6--------------|--5-----6-----5-----------|
|-----6-----------6-----6--|-----6-----6-----6-----6--|
|--------------------------|--------------------------|
|--6--L--5--L--------------|--------------------------|
|--------------8--L--5--L--|--------0--L--3--L--5--L--|
|--------------------------|--0--L--------------------|


   E  E  E  E  E  E  E  E     E  E  E  E  E  E  E  E   
|--5-----6--5--------------|--0--1--2--3--0-----------|
|-----6-----------6-----6--|-----1-----1-----1-----1--|
|--------------------------|--------------------------|
|--------------------------|--------------------------|
|--6--L--5--L--3--L--0--L--|--3-----3-----3-----3-----|
|--------------------------|--------------------------|


   E  E  E  E  E  E  E  E     E  E  E  E  E  E  E  E     E  E  E  E  H          
|-----1--3--4-----4--3--1--|-----------------------0--|--1-----4--3--L--------||
|--3-----------------------|-----1--0--1--2--3--4-----|-----------------------||
|-----3-----3-----3--------|--------------------------|-----------------------||
|-----------------------3--|--------------------------|--3-----1--1--L--------||
|--1-----1-----1-----1-----|-----3--2--1--0-----------|-----------------------||
|--------------------------|-----------------3--2--1--|--0-----1--0--L--------||




                         Legend
	             ---------------
			W - whole
			H - half
			Q - quarter
			E - 8th
			S - 16th
			T - 32nd
			X - 64th
			. - note dotted
			|-n-|  - n-tuplets
			L - tied note

Login or Register to remove this ad.

1 comment on Johnny C. Bad

Brilliant!!! This is the

Brilliant!!!

This is the Johnny C. Bad I've been waiting to play.

THANK YOU