Ads

Forever Rachel (Final Fantasy VI) Guitar Tab

Submitted: Jul 05, 2010 by Daugreano

0
Download | Listen
Game: Final Fantasy VI
Composer(s): Nobuo Uematsu
Style: Transcription
Series: Final Fantasy

AutoScroll: Slow | Medium | Fast
Song: Forever Rachel
Game: Final Fantasy VI
Composer: Nobuo Uematsu
Tabbed by: Daugreano

Guitar: 


   Q.    E   E   E   E   E     W        Q.    E   E   E   E   E     W        Q.    E   E   E   E   E
E|---------------------------|--------|---------------------------|--------|---------------------------|
B|---------------------------|--------|---------------------------|--------|-6-----6-------------------|
G|---------------------------|--------|---------------------------|--------|-----------9---7-------9---|
D|---------------------------|--------|-10----10--9---7-------9---|-7------|-------------------10------|
A|-10----10--9---7-------9---|-7------|-------------------10------|--------|---------------------------|
E|-------------------10------|--------|---------------------------|--------|---------------------------|

   H     Q    Q      W        H     Q    Q      W        W        H     Q    Q
E|-----------------|--------|-----------------|--------|--------|-----------------|
B|-----------------|--------|-----------------|--------|--------|-8----------8----|
G|-7---------------|-7------|-----------------|-7------|-L------|-------7---------|
D|-------8----10---|--------|-------8----10---|--------|--------|-----------------|
A|-----------------|--------|-----------------|--------|--------|-----------------|
E|-----------------|--------|-----------------|--------|--------|-----------------|

   H.     Q      Q    Q    Q    Q      Q    H     Q      Q    Q    H       W
E|-------------|---------------------|-----------------|-----------------|--------|
B|-10-----15---|-13---11---10---8----|-6---------------|-----------8-----|-L------|
G|-------------|---------------------|------7-----7----|-7---------------|--------|
D|-------------|---------------------|-----------------|------10---------|--------|
A|-------------|---------------------|-----------------|-----------------|--------|
E|-------------|---------------------|-----------------|-----------------|--------|

   Q    Q    H       Q    Q    Q    Q      H     H       Q    Q    Q    Q      W 
E|-----------------|---------------------|-------------|---------------------|--------|
B|-----------8-----|-L----8----10---11---|-10----------|-----------8----7----|-10-----|
G|-----------------|---------------------|-------9-----|-L----9--------------|--------|
D|-10---8----------|---------------------|-------------|---------------------|--------|
A|-----------------|---------------------|-------------|---------------------|--------|
E|-----------------|---------------------|-------------|---------------------|--------|

   W        H     Q    Q      H.     Q      Q    Q    Q    Q      Q    H.       Q    Q    Q    Q
E|--------|-----------------|-------------|---------------------|-------------|---------------------|
B|-L------|-8----------8----|-10-----15---|-13---11---10---8----|-6-----------|-----------8----11---|
G|--------|-------7---------|-------------|---------------------|------7------|-7-------------------|
D|--------|-----------------|-------------|---------------------|-------------|------10-------------|
A|--------|-----------------|-------------|---------------------|-------------|---------------------|
E|--------|-----------------|-------------|---------------------|-------------|---------------------|

   H     H       W
E|-------------|--------|
B|-10----7-----|-8------|
G|-------------|--------|
D|-------------|--------|
A|-------------|--------|
E|-------------|--------|


Login or Register to remove this ad.