Ads

Devil's Lab (Final Fantasy VI) Guitar Tab

Submitted: Jan 15, 2013 by thedstring (Last updated: Jan 16, 2013)

5
Average: 5 (3 votes)
Download | Listen
Game: Final Fantasy VI
Composer(s): Nobuo Uematsu
Style: Arrangement, Fingerstyle
Series: Final Fantasy

AutoScroll: Slow | Medium | Fast
Devil's Lab
Final Fantasy VI

Composed by Nobuo Uematsu
Arranged by Nate Brooks (thedstring)

Standard Tuning
Capo fret 2


The > symbol after a note means to emphasize that note.

E |----------------------------|----------------------------|
B |----------------------------|----------------------------|
G |----------------------------|----------------------------|
D |--------------0-------------|--------0--2--4-------------|
A |--2-----2--------------1----|--2--4--------------1-------|
E |----------------------------|----------------------------|


----------------------------|----------------|----------------------------|
----------------------------|----------------|----------------------------|
----------------------------|----------------|----------------------------|
----------------------------|----------------|--0-----0-----4--------0----|
--2-----2--------------1----|--2--2----------|----------------------------|
----------------------------|----------------|----------------------------|


----------------------------|----------------------------|----------------|
----------------------------|----------------------------|----------------|
----------------------------|----------------------------|----------------|
--2--2--2--2----------------|----------------------------|----------------|
--------------------0--1----|--2-----2--------------1----|--2--2----------|
--------------4-------------|----------------------------|----------------|


||----------------------------|----------------------------|
||----------------------------|----------------------------|
||*---------------------------|----------------------------|
||*----0>----0>-4>----3>------|--0>----0>-2--4>----0-------|
||--2>----2>----2-----2-------|-----4--------------1-------|
||--2-----2-----2-----2-------|--2-----------2-------------|


----------------------------|----------------|-----------0--2>------------|
----------------------------|----------------|--------3>----------3--2----|
--2>----1>------------------|----------------|-----4----------------------|
----------------------------|--3>-4>---------|--4>----------4-----0-------|
--2-----2--------------1----|-----2----------|----------------------------|
----------------------------|--2-------------|----------------------------|


----------------------------|----------------------------|
--0>----0>------------------|--------3>-5--3>----3>-5----|
--1-----------2>------------|--------4-----4-----4-------|
--------------0>----3>------|--4>------------------------|
-----0--2--4-----------1----|--2-----2-----2-----2-------|
--0-----------------1-------|--2-------------------------|


--------------2>------------|--------------2>----1>------|
--3>----3>-5--3--5--3>-2----|--0>-3--0>-3--------0-------|
--4-----4-----4-----4--2----|----------------------------|
----------------------------|--0-----0-----0-------------|
--2-----2-----2-------------|----------------------------|
----------------------------|--2-----2-----2--------0----|


----------------------------|--5>----4>------------------|
--3>----------0>----3>------|--2-----2-------------------|
--------3>------------------|--2-----2--------------3----|
--------0-----------0-------|----------------------------|
--------------2-----1-------|----------------------------|
--2--------0----------------|--2-----2-------------------|


--------2>------------------|----------------------------|
--6>----2-------------------|--------0>-2--3>----2>------|
--------2-------------------|-----2--------2-------------|
--4-------------------------|--4>----0--------------0----|
--------------------5>-2----|--------------------4-------|
--------2--------2----------|----------------------------|


--------------0>------------|----------------------------|
--0>----0>-2--0-------------|--0-----3>-5--3>----3>-5----|
--1--2--------1-----2>-3----|--------4-----4-----4-------|
--2-------------------------|----------------------------|
--------------------0-------|--------2-----2-----2-------|
--0-----------4-----1-------|--2-------------------------|


--------------2>------------|----------------------------|
--3>----3>-5--3--5--3>-2----|--3>------------------------|
--4-----4-----4-----4--2----|--2-----------2>------------|
----------------------------|--0-----0>-2--4-----2>-0----|
--2-----2-----2-------------|-----0----------------------|
----------------------------|----------------------------|


-----------0--4>------------|----------------------------|--0>------------|
--0>----0>----5-----2>------|--0>----2>----3>----2>------|--2--3>-2>-3>---|
-----1----------------------|--0--------2--4-----2-------|-----4--2--4----|
--2-------------------------|----------------------------|----------------|
--------------2-------------|----------------------------|----------------|
--0-------------------------|--3-----3-----3-------------|--3--3--3-------|


----------------|----------------|--------0>----1>----0>------|--3>-1>-0>-1>---|
--0>-3>-2>-3>---|--0>------------|--3>-------1--3-----1-------|-----3--1--3----|
--0--4--2--4----|--0-------------|--3-------------------------|--3-------------|
----------------|----------------|----------------------------|----------------|
----------------|-----------0>---|--1-----1-----1-------------|--1--1--1-------|
--3--3--3-------|--3--3--3-------|----------------------------|----------------|


-----1>-0>-1>---|----------------------------|--------------2>------------|
--3>-3--1--3----|--3>----------3>-2--1>-0----|-----------2>---------------|
--3-------------|--3-----------3--2--1--0----|--3>----3>----3-------------|
----------------|----------------------------|-----4-----4--------6-------|
--1--1--1-------|--1-----1>----5--4--3--2----|--------4-------------------|
----------------|----------------------------|--2-------------------------|


--------------2>----2>-4----|--5>------|----------------|----------|
--2>-------2-----2----------|----------|--3>------------|--2>------|
--------3>----3-----3-------|--2>------|--2--2----------|--2--2>---|
--2--------------2----------|--0--0>---|--0-----0>------|----------|
----------------------------|----------|----------------|--4--4----|
--0-------------------------|----------|----------------|----------|


----------------||-------||
--1>------------||-------||
--2------------*||-------||
-----0>--------*||--0>---||
--3-----4>-3>---||--2----||
----------------||--2>---||

Login or Register to remove this ad.

4 comments on Devil's Lab

The song seems really chaotic

5

The song seems really chaotic if you don't listen to the MP3 of it. Please do that.

Also, the capo really makes the song sound correct, I just played it without the capo, I hardly recognize it.

I'll work on an easier version, it might even sound better than this one.

Looks like I found a good

Looks like I found a good song to help practice on using more than 3 fingers for playing :P

Updated! This is a much

5

Updated! This is a much easier version, sounds better too!

...This is the easier

...This is the easier version? heheh

The first few lines felt awkward to me. Knowing you went to the trouble to make it easier, I will play through the whole thing with the capo. (I did listen to the midi).

...Heh, well, it's still a bit rough for me, but good show. :D