Ads

Dancing Mad (Tier 3) (Final Fantasy VI) Guitar Tab

Submitted: Jan 25, 2012 by Omnicide

4.5
Average: 4.5 (12 votes)
Download | Listen
Game: Final Fantasy VI
Composer(s): Nobuo Uematsu
Style: Arrangement, Fingerstyle, Natural harmonics
Series: Final Fantasy

AutoScroll: Slow | Medium | Fast
Dancing Mad Tier 3
Final Fantasy VI
Composed by Nobuo Uematsu
Arranged by William Geesdorf


C#ADGBE Tuning


                            NH                                        NH            
      W                     W                                         H.            
E ||-------------------|---------------------|-------------------|-----------------|
B ||-------------------|---------------------|-------------------|-----------------|
G ||-------------------|---------------------|-------------------|-----------------|
D ||-------------------|---------------------|-------------------|-----------------|
A ||-------------------|--<>9----------------|-------------------|--<>9------------|
C#||--0----------------|---------------------|-------------------|-----------------|


   E  E  E   E  E   E   E  E      Q.      E   E  E   E   E   
------------------------------|-----------------------------|
------------------------------|-----------------------------|
---------------------------8--|--10--------------8--10--11--|
----------------8--10--11-----|----------10--11-------------|
--11--8--9--11----------------|-----------------------------|
---0--------------------------|-----------------------------|


  E  E   E  E  E   E   E  E      E  E   E   E  E   E   E   E     E  E  E  E  E  E  E  E   
-----9------9----------------|--------------------------------|--------------------------|
--9-----11-----9-------------|------9------11--9--------------|--4-----------6--4--------|
------------------11--10--8--|--10-----11---------11--10------|--------------------6--3--|
-----------------------------|----------------------------11--|-----------------------5--|
-----------------------------|--------------------------------|--3--------1--3--4--6-----|
--0--------------------------|--------------------------------|-----6--7-----------------|


  Q.     E  E  E  E  E      E   E  E   E   E   E   E   E      E   E   E   E   Q     Q     
------------------------|------11--9--11------------------|------------------------------|
------------------------|-----------------13--11---9--11--|--13------11-------9----------|
--5---------------------|---------------------------------|------13------12--------------|
--6------------5--6--8--|--10------------------8--10--11--|--13------11------10----------|
---------6--8-----------|-------6--8--10--11--------------|------------------------11----|
------------------------|---------------------------------|------------------------------|


   E   E   E   E   E   E   E   E      E   E   E   E  E   E   E   E   
----------------------------------|---------------------------------|
----------------------------------|---------------------------------|
--10------------------------------|--11-----------------------------|
------11--10--11------11--10--11--|------11--10--11--8--11--10--11--|
------------------11--------------|---------------------------------|
---0------------------------------|---------------------------------|


  E   E   E   E   E   E   E   E      E   E   E   E  E   E   E   E   
---------------------------------|---------------------------------|
--9------------------------------|--11-----------------------------|
---------------------------------|---------------------------------|
-----11--10--11------11--10--11--|------11--10--11--8--11--10--11--|
-----------------11--------------|---------------------------------|
--0------------------------------|---------------------------------|


  H        E  E  E  E     Q.     E  E  E  E  E     H        E  E  E  E   
-----------------------|------------------------|-----------------------|
--6--------7--6--4-----|--6------4-----4--6--7--|--6--------7--6--4-----|
-----------------------|------------6-----------|-----------------------|
--6--------8-----4-----|--6---------------------|--6--------8-----4-----|
-----------------------|------------------------|-----------------------|
--0--------0-----0-----|--0---------------------|--0--------0-----0-----|


  Q.     E  H           E  E  E  E  E  E  E  E     E  E  E  E  E  E  E  E   
---------------------|--------------------------|--------------6-----4-----|
--6------4-----------|--------------6-----7-----|--9-----6--------------7--|
------------6--------|--6-----8-----------------|--------------------------|
--6------------------|-----6-----6-----6-----6--|-----6-----6-----4--------|
---------------------|--------------------------|--------------------------|
--0------------------|--0-----------------------|--0-----------5-----------|


  E  E  E  E  E  E  E  E     E  E  E  E  E  E  E  E     E  E  E  E  E  E  E  E   
--------------------------|--------------------------|--------------------------|
--9-----6-----4-----7-----|--6-----------------------|--------------------------|
--------------------------|--------6-----8-----5-----|--6-----------6-----------|
-----6-----6-----4-----4--|-----6-----6--------------|-----------6-----6--------|
--------------------------|-----------------6-----6--|-----4--8-----------8--6--|
--0-----------5-----------|--0-----------7-----------|--0-----------------------|


  Q    Q    Q    Q       E  E  E  E  E  E  E  E     E  E  E  E  E  E  E  E   
----------------------|--------------------------|--------------------------|
----------------------|--------------0-----------|-----------4--------------|
----------------------|--------------------------|-----4--------4-----------|
----------------------|--------6--7-----7--6-----|--------4--------4-----0--|
--4----3----1----3----|--4--7-----------------7--|--6-----------------7-----|
--0-------------------|--0-----------------------|--0-----------------------|


  E  E  E  E  E  E  E  E     E  E  E  E  E  E  E  E     E  E  E  E  E  E  E  E   
--------------------------|--------------5-----4-----|--------------------------|
--------------------7-----|--9--------------------7--|--9-----------4-----7-----|
--6-----8-----9-----------|--------9-----------------|--------9-----------------|
-----6-----6-----6-----6--|-----6-----6-----4--------|-----6-----6-----4-----4--|
--------------------------|--------------------------|--------------------------|
--0-----------------------|--0-----------5-----------|--0-----------5-----------|


  E  E  E  E  E  E  E  E     E  E  E  E  E  E  E  E     Q    Q    Q    Q     
--0-----------------------|--------------------------|----------------------|
--------2-----1-----4-----|--------------------------|----------------------|
--------------------------|--6-----------6-----------|----------------------|
-----2-----2-----1-----1--|-----------6-----6--------|----------------------|
--------------------------|-----4--7-----------7--6--|--4----3----0----3----|
--3-----------2-----------|--0-----------------------|--0-------------------|


  E  E  E  E  E  E  E  E     E  E  E  E  E  E  E  E     E  E  E  E  E  E  E  E   
--------------------------|--------------------------|--------------------------|
--2-----------2-----------|--0-----------------------|--------------------------|
-----------2-----2--------|--------------8-----------|--------------------------|
--------2-----------2-----|-----------6-----6--------|--2-----------4--1--2--4--|
-----4-----------------4--|-----4--6-----------6--4--|-----4--3--4--------------|
--0-----------------------|--0-----------------------|--0-----------2-----------|


  E  E  E  E  E  E  E  E     Q    E  E  E  E  E  E     E  E  E  E  Q    E  E   
--------------------------|-------------------------|-------------------------|
--------------------------|--0----------------------|--------0----------------|
--1-----------------------|--0----2--0--------------|--------0-----5----4--2--|
-----2--1--2--7--4--6--7--|-------------4--2--1-----|--------------7----------|
--------------------------|----------------------4--|--2----------------------|
--3-----------5-----------|--3----------------------|--------3-----8----------|


                              |---3---|   |---3---|   |---3---|   |---3---|   
  E  E  E  E  E  E  E  E      E   E   E   E   E   E   E   E   E   E   E   E   
--------------------------|--------------------------------------------------|
--------------------------|----------------------------------10----------10--|
--0-----------------5-----|------11--14------11--14------11----------11------|
-----4--2--0--------7-----|--12----------12----------12----------12----------|
--------------3-----------|--------------------------------------------------|
--------------------8-----|--13----------11-----------9-----------8----------|


  |--3--|  |--3--|  |--3--|   |---3---|     |--3--|  |--3--|  |--3--|  |--3--|   
  E  E  E  E  E  E  E  E  E   E   E   E     E  E  E  E  E  E  E  E  E  E  E  E   
--------6--------6--------6--------------|--------3--------3--------3-----------|
-----8--------8--------8-------------11--|-----5--------5--------5--------5--8--|
--7--------7--------7------------12------|--5--------5--------5--------5--------|
-----------------------------12----------|--------------------0-----------------|
-----------------------------------------|--3--------------------------7--------|
--6-----------------8---------9----------|--------------------------------------|


  |--3--|  |--3--|  |--3--|  |--3--|     |--3--|  |--3--|  |--3--|  |---3--|   
  E  E  E  E  E  E  E  E  E  E  E  E     E  E  E  E  E  E  E  E  E  E  E   E   
--------5--------5--------5--------5--|--------1--------1--------1------------|
-----6--------6--------6--------6-----|-----3--------3--------3---------------|
--5--------5--------5--------5--------|--3--------3--------3-----------7--10--|
--3-----------------3-----------------|--0--------------------------8---------|
-----------3-----------------6--------|-----------3--------1------------------|
--------------------------------------|-----------------------------7---------|


  |--3--|  |--3--|  |--3--|  |--3--|                              
  E  E  E  E  E  E  E  E  E  E  E  E     E  E  E  E  E  E  E  E   
-----------------3-----------------3--|--5-----------------------|
--------8-----4-----------8-----4-----|--------------------------|
-----8-----3-----------8-----3--------|-----------6--7--6--7--9--|
--8-----------------8-----------------|-----7--9-----------------|
-----------------------------4--------|--0-----------------------|
--6--------2--------9-----------------|--------------------------|


   E  E   E   E   E  E  E   E      E   E   E   E   E   E  E   E   
------------------------8------|------15--13--15--11--10--8--11--|
------8---9--10--11--8-----10--|--11-------0---------------------|
--10--7--------------7------7--|--------------------------8------|
---------10--12---8-----7------|------------------10-------------|
-------------------------------|--10-----------------------------|
-------------------------------|---------------------------------|


   E   E   E   E   E  E   E   E      E   E   E   E   E   E   E   E   
--10-------8--11--10-------------|--------------10----------11--10--|
------10--------------9--10--13--|--11------11------10--------------|
---------------------------------|------12--------------11----------|
--12--11--10---8---7--0----------|-----------0---------------7------|
--------------------------9--12--|--10---------------9--------------|
---------------------------------|----------------------------------|


   E   E   E   E   E   E   E   E      E   E   E   E   E   E   E   E   
------10------10------10------10--|------10------10--------------10--|
--------------------------10------|--11------10----------15--12------|
--12------11------12--------------|------------------15--------------|
----------------------------------|---------------------------0------|
--10-----------------------9------|---8-------7----------------------|
----------------------------------|------------------14--------------|


   E   E   E   E   E  E   E   E     E   E   E   E  E   E   E   E   
------15--14--15--10--8----------|-----11--10--11--8--------------|
--13---------------------11--10--|--8-----------------11--10------|
---------------------------------|----------------------------10--|
-------------------0-------------|--------------------------------|
---------------------------------|--6--------------8--------------|
--11-----------------------------|--------------------------------|


   E   E  E  E  Q     Q       W                   W                 
----------5--6--8----------|-------------------|--7----------------|
------11-------------10----|--8----------------|--6----------------|
---8-----------------------|--0----------------|--7----------------|
----------------0----------|-------------------|-------------------|
--10------6-----------9----|-------------------|--5----------------|
---------------------------|-------------------|-------------------|


  S  S S  S S  S S  S H           W                   Q    H        Q       H.            
-------------------------------|-------------------|-------7--------8----|--L------------|
----------------------6--------|--L----------------|-------6--------7----|--L------------|
-----------------4h-7----------|-------------------|-------7--------8----|--L------------|
------------3h-6---------------|-------------------|---------------------|---------------|
-------2h-5--------------------|-------------------|-------5--------6----|--L------------|
--4h-7-------------------------|-------------------|---------------------|---------------|


  S  S S  S S  S S  S H           W                   Q    H        Q     
-------------------------------|-------------------|-------8--------9----|
----------------------7--------|--L----------------|-------7--------8----|
-----------------5h-8----------|-------------------|-------8--------9----|
------------4h-7---------------|-------------------|---------------------|
-------3h-6--------------------|-------------------|-------6-------------|
--5h-8-------------------------|-------------------|----------------0----|


   W                   W                   W                   W                 
---L----------------|--9----------------|--8----------------|--9----------------|
---L----------------|--7----------------|--7----------------|--7----------------|
---L----------------|--8----------------|--8----------------|--6----------------|
--------------------|-------------------|-------------------|-------------------|
--------------------|-------------------|-------------------|-------------------|
---L----------------|--7----------------|-------------------|--0----------------|


                  ^                                                          
  H.              W                   W                   W                  
--L------------|--9----------------|--L----------------|--L----------------||
--L------------|--6----------------|--L----------------|--L----------------||
--L------------|--6----------------|--L----------------|--L----------------||
---------------|--6----------------|--L----------------|--L----------------||
---------------|--8----------------|--L----------------|--L----------------||
--L------------|--0----------------|--L----------------|--L----------------||




Duration Legend
---------------
W - whole
H - half
Q - quarter
E - 8th
S - 16th
T - 32nd
X - 64th
. - note dotted
|-n-|  - n-tuplets


Tablature Legend
----------------
L - tied note
NH - natural harmonic
h - hammer on
^ - brush up
Login or Register to remove this ad.

3 comments on Dancing Mad (Tier 3)

You da best.

5

You da best.

I just wanted to go to bed,

5

I just wanted to go to bed, but how can I NOT try this out, right now ?!

man,this will take decades to

5

man,this will take decades to master
better get started